» » »

Madball, Friend Or Foe Bass tabs (ver.1)

Artists:  A B C D E F G H I J K L M N O P Q R S T U V W X Y Z # 

Friend Or Foe Bass tabs (ver.1)

Madball Tabs
Rating:
0/5 (0 votes)
Hard to play? Try these video lessons and learn fast.
                Band:Madball

Intro:
G|------------------------------------------------------|
D|------------------------------------------------------|
A|-6-6-6-4-4-4-9-9-9-6-6-6-11-11-11-8---888888888888888-|
E|------------------------------------------------------|

G|-----------------------------------------------------------|
D|------------------------------------88888-8-88888-88888888-|
A|-6-6-6-4-4-4-9-9-9-6-6-6-11-11-11-8------------------------|
E|-----------------------------------------------------------|

G|------------------------------------|
D|------------------------------------|
A|-6-6-6-4-4-4-9-9-9-6-6-6-11-11-11-8-|
E|------------------------------------|

Rif1:
G|--------------------------------|
D|--------------------------------|
A|-88888888-88888888-11-6-4-6-4-6-|
E|--------------------------------|

Rif2:
G|-------------------|
D|-------------------|
A|-9999-8888-9999-88-|
E|-------------------|

Then:
G|--------------|
D|--------------|
A|11-6-4-6-4-6--|
E|--------------|

Outro:
G|----------------------------|
D|----------------------------|
A|----------------------------|
E|-8-88-88-8---11-6-4-6-4-6-8-|

Jonny Toxik
            

comments powered by Disqus
↑ Back to top | Madball Bass for Friend Or Foe. Lyrics for acoustic guitar and electric guitar. Tablatures and chords are parodies/interpretations of the original songs. You may use it for private study, scholarship, research or language learning purposes only