» » »

Madball, For My Enemies Tabs (ver.1)

Artists:  A B C D E F G H I J K L M N O P Q R S T U V W X Y Z # 

For My Enemies Tabs (ver.1)

Madball Tabs
Rating:
4/5 (1 vote)
For My Enemies lessons Tabs too difficult? Try these video lessons and learn fast
                ------------------------------------------------
Title     : For My Enemies
Artist    : Madball
Album     : Legacy
Capo      : none
Setting   : D-A-D-G-B-E
-------------------------------------------------


INTRO
e|------|
b|------|
g|------|
D|-0----|
A|-0----|
D|-0--\-|
      Pick Slide

VERSE X 2
e|-----------------------------------------------
b|-----------------------------------------------
g|-3---------------------------------------------
D|-3-3-33-1----3--13-------1----1--0------1----1-
A|-1-3-33-1----3--13-------1----1--0------1----1-
D|---3-33-1-11-3--13--0000-1-00-1--0-0000-1-00-1-
PM          ..        ....   ..      ....   ..   
-----------------------------------------------------|
-----------------------------------------------------|
-3---------------------------------------------------|
-3-3-33-1----3-13------1----1----4----3----1----3----|
-1-3-33-1----3-13------1----1----4----3----1----3----|
---3-33-1-11-3-13-0000-1-00-1-00-4-00-3-00-1-00-3-00-|
          ..      ....   ..   ..   ..   ..   ..   ..

END VERSE
e|------------------------------------------------------|
b|------------------------------------------------------|
g|-3--------5--------7-8-888--5-7-777--1--------5-------|
D|-3-3-333--5-5-555--7-8-888--5-7-777--1-3-333--5-5-555-|
A|-1-3-333--3-5-555--5-6-666--3-5-555--3-3-333--3-5-555-|
D|---3-333----5-555----------------------3-333----5-555-|

RIT X 4         END
e|-------------|---------|
b|-------------|---------|
g|-------------|---------|
D|-0---11-00-0-|---------|
A|-0-0-11-0000-|-1-1-1-1-|
D|-0-0-11-0000-|-1-1-1-1-|
PM   .      .    . . . .

VERSE X 2
e|-----------------------------------------------
b|-----------------------------------------------
g|-3---------------------------------------------
D|-3-3-33-1----3--13-------1----1--0------1----1-
A|-1-3-33-1----3--13-------1----1--0------1----1-
D|---3-33-1-11-3--13--0000-1-00-1--0-0000-1-00-1-
PM          ..        ....   ..      ....   ..   
-----------------------------------------------------|
-----------------------------------------------------|
-3---------------------------------------------------|
-3-3-33-1----3-13------1----1----4----3----1----3----|
-1-3-33-1----3-13------1----1----4----3----1----3----|
---3-33-1-11-3-13-0000-1-00-1-00-4-00-3-00-1-00-3-00-|
          ..      ....   ..   ..   ..   ..   ..   ..

END VERSE
e|------------------------------------------------------|
b|------------------------------------------------------|
g|-3--------5--------7-8-888--5-7-777--1--------5-------|
D|-3-3-333--5-5-555--7-8-888--5-7-777--1-3-333--5-5-555-|
A|-1-3-333--3-5-555--5-6-666--3-5-555--3-3-333--3-5-555-|
D|---3-333----5-555----------------------3-333----5-555-|

RIT X 4         END
e|-------------|---------|
b|-------------|---------|
g|-------------|---------|
D|-0---11-00-0-|---------|
A|-0-0-11-0000-|-1-1-1-1-|
D|-0-0-11-0000-|-1-1-1-1-|
PM   .      .    . . . .

OUTRO
 X2
e|----------------------------------|
b|----------------------------------|
g|-757-578-8888888--757-578-888-----|
D|-757-578-8888888--757-578-8888888-|
A|-535-356-6666666--535-356-6666666-|
D|----------------------------------|
PM                             ....

e|----------------------------------|
b|----------------------------------|
g|----------------------------------|
D|-535-356----------535-356-6666666-|
A|-535-356--66-666--535-356-6666666-|
D|-535-356--66-666--535-356-6666666-|
PM          .. ...

e|------------------------------------|
b|------------------------------------|
g|-757-578-8888888--757-578-888-------|
D|-757-578-8888888--757-578-888-----0-|
A|-535-356-6666666--535-356-666-111-0-|
D|------------------------------111-0-|
PM                              ...
            
Submit corrections

comments powered by Disqus
↑ Back to top | Madball Tabs for For My Enemies. Lyrics for acoustic guitar and electric guitar. Tablatures and chords are parodies/interpretations of the original songs. You may use it for private study, scholarship, research or language learning purposes only