» » »

Walk Away Tabs (ver.1)

Artists:  A B C D E F G H I J K L M N O P Q R S T U V W X Y Z # 

Walk Away Tabs (ver.1)

Mad At Gravity
Rating:
4/5 (4 votes)

Tabs too difficult? Try these video lessons and learn fast.
                
this song has taken some figuring. i'm pretty sure one guitar has a capo on 3rd
fret with dropped D tuning, and the other is just in dropped D. so i've tabbed
both guitars, and G1 (guitar 1) is the guitar without the capo.i've tabbed it as
if there were no capo there, its easier that way. so regardless of which parts
you're playing the frets numbers
are as i've put, and hopefully they're right.

intro/chorus:
G1
e|----------|-------------|-------------|-------------|
B|----------|-------------|-------------|-------------|
G|----------|-------------|-------------|-------------|
D|-8-8-8-8--|-11-11-11-11-|--1--1--1--1-|--4--4--6--6-|=====
A|-8-8-8-8--|-11-11-11-11-|--1--1--1--1-|--4--4--6--6-|    =
D|-8-8-8-8--|-11-11-11-11-|--1--1--1--1-|--4--4--6--6-|    =
G2                                                         = guitars 1 and 2
e|----------|-------------|-------------|-------------|    =    together
B|----------|-------------|-------------|-------------|    =
G|----------|-------------|-------------|-------------|=====   
D|-8-8-8-8--|-11-11-11-11-|-15-15-15-15-|-13-13-18-18-|
A|----------|-------------|-------------|-------------|
D|-8-8-8-8--|-11-11-11-11-|-15-15-15-15-|-13-13-18-18-|

G1
e|--------------|-------------|-------------|-------------|
B|--------------|-------------|-------------|-------------|
G|--------------|-------------|-------------|-------------|
D|--8--8--8--8--|-11-11-11-11-|--1--1--1--1-|--6--6--8--8-|=====
A|--8--8--8--8--|-11-11-11-11-|--1--1--1--1-|--6--6--8--8-|    =
D|--8--8--8--8--|-11-11-11-11-|--1--1--1--1-|--6--6--8--8-|        =
G2                                                             = guitars 1 and 2
e|--------------|-------------|-------------|-------------|    =    together
B|--------------|-------------|-------------|-------------|    =
G|--------------|-------------|-------------|-------------|=====
D|-12-12-12-12--|-11-11-15-15-|-8--8--8--8--|--6--6--8--8-|
A|--------------|-------------|-------------|-------------|
D|-12-12-12-12--|-11-11-15-15-|-8--8--8--8--|--6--6--8--8-|

verse:
e|-------------------------------------------
B|-----------------6-------------------------
G|-------------------6-------8------------------
D|-----10--------6-----6---8---8------6---6---   this times 2.
A|---8----8----4---------6-------6--4---4------   second time played
D|-8--------8-------------------------------6-    underneath next riff.


NOTE: this can be played without a capo, but its easy with one.
its palm muted, and i'm pretty sure theres a third guitar in there.
guitar 3 has no palm mute.
G2
e|----------------------------------------------------------------
B|----------------------------------------------------------------
G|----------------------------------------------------------------
D|--8^3-3-8^3-3-6^3-3-6^3-3-8^3-3-8^3-3-11^3-3-11^3-3------------
A|----------------------------------------------------------------
D|----------------------------------------------------------------
G2
e|---------------------------------------------------------
B|---------------------------------------------------------
G|---------------------------------------------------------
D|--15^3-3-15^3-3-15^3-3-15^3-3-18^3-3-18^3-3-20^3-3-20----=====
A|---------------------------------------------------------    =
D|---------------------------------------------------------    =
G3                                                             = guitars 2 and 3
e|---------------------------------------------------------    = together with guitar 1
B|---------------------------------------------------------    = playing first verse riff.
G|---------------------------------------------------------=====
D|---8^3-3--8^3-3--6^3-3--6^3--3-8^3--3-8^3--3-8^3-3-8----
A|---------------------------------------------------------
D|---------------------------------------------------------

post chorus bridge
G1
e|-------------------------------
B|------------------------------
G|-------------------------------
D|-----10-----10---------6-3-----=====
A|---8------8----8-----4---------    =
D|-8------6--------6-4-----------    =
G2                                   = guitars 1 and 2 together
e|-------------------------------    =
B|-------------------------------    =
G|-------------------------------=====
D|-8------6----------4-----3-----
A|-8------6----------4-----3-----
D|-8------6----------4-----3-----

verse2: has a slight change in the second part.
G1 -  this is repeated constantly until the chorus starts. towards
the end is played with less palm mute.
e|---------------------------------------------------
B|---------------------------------------------------
G|--------------------------------------------------
D|-8^3-3-8^3-3-6^3-3-6^3-3-8^3-3-8^3-3-6^3-3-6^3-3--
A|---------------------------------------------------
D|-------------------------------------------------
G2 - comes in after G1 has played his riff twice and plays these two riffs
 over the top (once each).
e|----------------------------------------------------------
B|----------------------------------------------------------
G|----------------------------------------------------------
D|-13^3-3-13^3-3-15^3-3-15^3-3-18^3-3-18^3-3-15^3-3-15^3-3--
A|----------------------------------------------------------
D|----------------------------------------------------------
G2
e|----------------------------------------------
B|----------------------------------------------
G|-----------------------------------------------  play without palm mute
D|-13^3-3-13^3-3-15^3-3-15^3-3-18^3-3-18^3-3-20---
A|-----------------------------------------------
D|----------------------------------------------

post chorus bridge(second chorus):
G1
e|---------|-------------|-------------|-------------|
B|---------|-------------|-------------|-------------|
G|---------|-------------|-------------|-------------|
D|-8-8-8-8-|--6--6--6--6-|--8--8--8--8-|--6--6--6--6-|=====
A|-8-8-8-8-|--6--6--6--6-|--8--8--8--8-|--6--6--6--6-|    =
D|-8-8-8-8-|--6--6--6--6-|--8--8--8--8-|--6--6--6--6-|    = 
G2                                                        = guitars 1 and 2
e|---------|-------------|-------------|-------------|    =    together
B|---------|-------------|-------------|-------------|    =
G|---------|-------------|-------------|-------------|=====
D|-8-8-8-8-|-11-11-11-11-|-15-15-15-15-|-13-13-18-18-|
A|---------|-------------|-------------|-------------|
D|-8-8-8-8-|-11-11-11-11-|-15-15-15-15-|-13-13-18-18-|

G1
e|-------------|-------------|-------------|-------------|
B|-------------|-------------|-------------|-------------|
G|-------------|-------------|-------------|-------------|
D|--8--8--8--8-|--6--6--6--6-|--8--8--8--8-|--6--6--8--8-|=====
A|--8--8--8--8-|--6--6--6--6-|--8--8--8--8-|--6--6--8--8-|    =
D|--8--8--8--8-|--6--6--6--6-|--8--8--8--8-|--6--6--8--8-|    = 
G2                                                            = guitars 1 and 2
e|-------------|-------------|-------------|-------------|    =    together
B|-------------|-------------|-------------|-------------|    =
G|-------------|-------------|-------------|-------------|=====
D|-12-12-12/18-|-11-11-11/18-|--8--8--8--8-|--6--6--8--8-|
A|-------------|-------------|-------------|-------------|
D|-12-12-12/18-|-11-11-11/18-|--8--8--8--8-|--6--6--8--8-|

interlude part 1:
G1 - D string is palm muted
e|----------------------------------------------------------------
B|----------------------------------------------------------------
G|----------------------------------------------------------------
D|----------------------------------------------------------------
A|-----8-8-----8-8^9-----8-8-----8-8^9-----8-8-----8-8^9-----8-8-----8-8^9---
D|-8-8-----8-8-------6-6-----6-6-------4-4-----4-4-------3-3-----3-3--------
G2 - comes in after G1 plays one time thru, palm muted
e|----------------------------------------------------------------
B|----------------------------------------------------------------
G|-------------------------------------------------------13-13-13-15-15-15----
D|-8-8-8-8-8-8-8-8-8-10-10-10-10-10-10-13-13-13-13-13-13--------------------
A|----------------------------------------------------------------
D|----------------------------------------------------------------

interlude part 2:
G1 plays intro/chorus while G2 plays

G2
e|------------------------------------
B|-------------------------------------
G|--15-13-15-13----------13-------------- play 6 times then....
D|--------------15-13-15----15-13-15-13--
A|---------------------------------------
D|----------------------------------
G2
e|---------------------------                 --------
B|---------------------------                 -------
G|---------------------------                 ---------
D|--8-6-8-6-------6---------- 3 times then    -15--8--
A|----------8-6-8---8-6-8-6--                 --------
D|---------------------------                 -15--8--

outro:
e|-------------------------------------------------
B|------------------------------------------------
G|---------------------------------------------8~---
D|-8-8-8-8-|-11-11-11-11-|-1-1-1-1-|-4-4-6-6-|-8~---
A|-8-8-8-8-|-11-11-11-11-|-1-1-1-1-|-4-4-6-6-|-6~---
D|-8-8-8-8-|-11-11-11-11-|-1-1-1-1-|-4-4-6-6-|-6~--

i'll put in a quick song structure too, cos theres a bit in this one.


1. intro/chorus
2. verse
3. intro/chorus
4. post chorus bridge
5. verse2
6. intro/chorus
7. post chorus bridge(second chorus)
8. post chorus bridge(first chorus)
9. interlude part 1
10.interlude part 2
11.intro/chorus
12.post chorus bridge(second chorus)
13. outro

questions or comments, you have my email(top of page).
            
Tabs too difficult? Try these video lessons and learn fast.




comments powered by Disqus
↑ Back to top | Tablatures and chords are parodies/interpretations of the original songs. You may use it for private study, scholarship, research or language learning purposes only