>
 >
Walk Alway

Walk Alway Guitar Tabs

Mad At Gravity - Walk Alway chords, tabs, tablatures, lyrics

Guitar lessons | Add/correct | Request | Top 50 tabs Artists:  A B C D E F G H I J K L M N O P Q R S T U V W X Y Z 0-9

Walk Alway Guitar Tabs – Mad At Gravity

CD, Sheet music, Poster

Do you like Walk Alway? Share with your friends now
Tabs
_      _       _      ___            RATE
   | \    / |     / \     |  |           THIS
   |  \  /  |    / - \    | ___           TAB         
   |_|\\_/|_|ad /_/-\_\t  |__|ravity
            __        __      _
            \ \  /\  / /     / \ 
             \ \//\\/ /     / - \ 
              \__/\__/alk  /_/-\_\way   TAB
Hey,iv seen no really goood tabs the only thing im not sure
about on this is the verse..but try it this tabs in Dropped D
..hope you like it,rate this tab!thanks
Intro/Chorus
e--------------------------------------------------
b--------------------------------------------------
g-3-3-3-3/6-6-6-6-6/10-10-10-10-8-8-8-8/13-13-13-13
d-x-x-x-x-x-x-x-x-x-x--x---x--x-x--x--x--x--x--x--x
a-1-1-1-1/4-4-4-4-4/8--8---8--8-6-6-6-6/11-11-11-11
D--------------------------------------------------

e-------------------------------------------------
b-------------------------------------------------
g-7-7-7-7-6-6-6-6/10-10-10-3-3-3-3--------3-3-3-3
d-x-x-x-x-x-x-x-x-x--x- x--x-x-x-x-6-6-6--x-x-x-x
a-5-5-5-5-4-4-4-4/8--8--8--1-1-1-1-x-x-x--1-1-1-1
D----------------------------------6-6-6---------

Verse
Guitar 1
e---------1-1-1---------------
b---1-----------------4-------
g-----3--------------3-------1
d---------------1----------1--
a-3------4--------------------
D------------------------4----

Guitar 2
P.M.ooooooooooooooooooooo
e------------------------
b-----------------2---2-- x2 sacond time hold C# on b string 
g-3-1-3-1---1---1---1---1
d---------3---3----------
a------------------------
D------------------------

Chorus

Pre-Verse(for 2nd verse)
e---------------------
b---1---1-------------
g----------------1----
d-3-------3----1------
a-1---6------4-------1
D-----6------4-------1

Verse(same as verse 1)
Chorus

Breakdown
e---------------------------------------
b---------------------------------------
g---------------------------------------
d-3-3-3-3-3-6-6-6-6-6-------------------
a-1-1-1-1-1-4-4-4-4-4--4-4-4-4-4-4-4-4-4
D----------------------4-4-4-4-4-4-4-4-4
e---------------------
b---1---1-------------
g----------------1----
d-3-------3----1------
a-1---6------4-------1
D-----6------4-------1

e---------------------------------------------
b---------------------------------------------
g---------------------------------------------
d-3-3-3-3h4-3-3-3-3h4-3-3-3-3-3h4-3-3-3-3-3-3-
a---------------------------------------------
D---------------------------------------------

"and you and I should walk away"(faintly played with words)
e------------------------1--4--
b-2----------4-----------------
g------------------------------
d------------------------------
a------------------------------
D------------------------------


Solo
e-6p4h6p4h6p4h6p4---4---4----4-----
b-----------------6---6----6---6-4-
g----------------------------------
d---------------------------------- (x5)
a----------------------------------
D----------------------------------

e-6p4h6p4h6p4h6p4--
b-----------------6~~
g------------------
d------------------
a------------------
D------------------

e----------------------------       e------
b----------------------------       b------
g-3p1h3p1h3p1h3p1---1---1----       g------
d-----------------3---3---3-1 (x4?) d-3/1--
a----------------------------       a------
D----------------------------       D------

Chorus

"Never spea again"-one guitars playin chorus the other
is playin this-
e---------------------------------------
b---------------------------------------
g---------------------------------------
d-3-3-3-3-3-6-6-6-6-6-------------------
a-1-1-1-1-1-4-4-4-4-4-1-1-1-1-1-4-4-4-4-
D---------------------1-1-1-1-1-4-4-4-4-

Ending
e---------------------------------------
b---------------------------------------
g---------------------------------------
d-3-3-3-3-3-6-6-6-6-6-------------------
a-1-1-1-1-1-4-4-4-4-4--1-1-1-1-1-1-1-1--
D----------------------1-1-1-1-1-1-1-1--

P.M.00000000000000000000000
e----------------------------
b----------------------------
g---------------------------3
d---------------------------3
a-5-5-5-5-5-5-5-7-7-7-7-7-7-1 Hold last chord
D-5-5-5-5-5-5-5-7-7-7-7-7-7--


Well that's it,if you have any corrections or comments,click the
correct tab button on the top,rate this tab it took a long time
See ya





Comments


Popular Mad At Gravity tabs & chords
Find The Words Bass Tabs
Burn (Acoustic) Tabs
Burn (Acoustic) 1 Tabs
Burn 1 Tabs
In Vain Tabs
Time And Time Again Tabs
Time And Time Again 1 Tabs
Undefined Reversion Tabs
Walk Away 2 Tabs
Walk Away 3 Tabs


Song lyrics



↑ Back to top | Tablatures and chords are parodies/interpretations of the original songs. You may use it for private study, scholarship, research or language learning purposes only
© 2014 AZChords.com Contact us | Privacy policy | DMCA | Add/correct tabs | Request tabs | Top 50 tabs