» » »

Mad At Gravity, Undefined Reversion Tabs (ver.1)

Artists:  A B C D E F G H I J K L M N O P Q R S T U V W X Y Z # 

Undefined Reversion Tabs (ver.1)

Mad At Gravity Tabs
Rating:
0/5 (0 votes)
Undefined Reversion lessons Tabs too difficult? Try these video lessons and learn fast
                intro
e(--11----10----6----6---11----10----6----6-------)
b(-----11----11---10---9----11----11---10---9-7h8-)
g(------------------------------------------------)
d(------------------------------------------------)
a(------------------------------------------------)
D(------------------------------------------------)

intro continued
e(--11----10----6----6---11----10----13-10-)
b(-----11----11---10---9----11----11-------)
g(-----------------------------------------)
d(-----------------------------------------)
a(-----------------------------------------)
D(-----------------------------------------)

intro rythem
e(-----------------------)
b(--8-9p8-9p8-11p9-9-9-9-)
g(-----------------------)
d(-----------------------)
a(-----------------------)
E(-----------------------)

verse
e(---------------------------)
b(--8-89-98-86-68-811-118-86-)
g(---------------------------)
d(---------------------------)
a(---------------------------)
D(---------------------------)

chorus
e(-------------------------------------------------)
b(--8-88886-68-11-11h13-11-11-11h13-11-11-11-11-11-)
g(-------------------------------------------------)
d(-------------------------------------------------)
a(-------------------------------------------------)
D(-------------------------------------------------)

post-chorus
e(---------------------------)
b(--8-89-911-1110-8-86-65-56-)
g(---------------------------)
d(---------------------------)
a(---------------------------)
D(---------------------------)

breakdown
e(--------------------------------------------------------------------)
b(--------------------------------------------------------------------)
g(--10-10101010-10101010-10101010-10101011-11111111-11111111-11111111-)
d(--8---8-8-8-8-8-8-8-8---8-8-8-8--8-8-8-9--9-9-9-9--9-9-9-9--9-9-9-9-)
a(--------------------------------------------------------------------)
E(--------------------------------------------------------------------)

lead
e(--------15-13-12-13-14-15-13-12-8-14-15-13-12-8-)
b(--8-9-8-----------------------------------------)
g(------------------------------------------------)
d(------------------------------------------------)
a(------------------------------------------------)
D(------------------------------------------------)

solo
e(-----------------------------------------------------------------------)
b(--8-8/6-6/5-5/6-6h8-8-8/6-6/5----8-8888-8889-9999-11-1111-8-8888-88886-)
g(------------------------------5----------------------------------------)
d(-----------------------------------------------------------------------)
a(-----------------------------------------------------------------------)
D(-----------------------------------------------------------------------)

solo continued
e(-------------------------------------------------------)
b(--66665---8-8888-88889-9913-13131313-13131313-13131313-)
g(--------5-------------------------------------10101010-)
d(-------------------------------------------------------)
a(-------------------------------------------------------)
D(-------------------------------------------------------)
            

comments powered by Disqus
↑ Back to top | Mad At Gravity Tabs for Undefined Reversion. Lyrics for acoustic guitar and electric guitar. Tablatures and chords are parodies/interpretations of the original songs. You may use it for private study, scholarship, research or language learning purposes only