» » »

Time And Time Again Tabs (ver.2)

Artists:  A B C D E F G H I J K L M N O P Q R S T U V W X Y Z # 

Time And Time Again Tabs (ver.2)

Mad At Gravity
Rating:
0/5 (0 votes)

Hard to play? Try these video lessons and learn fast.
                Some picking and timing may be wrong but this is what i figured out.

Dropped C tuning...

intro (clean tone with chorus effects)
D-----------------------------------|
A------3--3-3--3-3-------3-3-3------|
F----2---2-2----2-2----0--0-0----0--|
C--0-----------------3---------3----| repeat 4 times
G-----------------------------------|
C-----------------------------------|

then this...
D----------------------------------------------|
A--8--8--8---5--5-5--5--5-5-3-3-3--3-3-3--3-3--|
F--x--x--x---x--x-x--x--x-x-x-x-x--x-x-x--x-x--|
C--8--8--8---5--5-5--5--5-5-3-3-3--3-3-3--3-3--|
G----------------------------------------------|
C----------------------------------------------|

D-----------------------------------|
A------3--3-3--3-3-------3-3-3------|
F----2---2-2----2-2----0--0-0----0--|
C--0-----------------3---------3----|
G-----------------------------------|
C-----------------------------------|

            (don't call me cynical)
D-------------------------------------------------|
A--10--10--10---5--5-5--5--5-5-3-3-3--3-3-3--3-3--|
F---x---x---x---x--x-x--x--x-x-x-x-x--x-x-x--x-x--|
C--10--10--10---5--5-5--5--5-5-3-3-3--3-3-3--3-3--|
G-------------------------------------------------|
C-------------------------------------------------|

distortion
D------------------------------------|
A------------------------------------|
F------------------------------------| repeat 4
C------------------------------------|
G--5--5-5-3-5--5--5--5-5--3-5--------|
C--0--0-0-0-0--0--0--0-0--0-0--------|

       you cannot hide   your pedigree
D-----------------------------------|
A------3--3-3--3-3-------3-3-3------|
F----2---2-2----2-2----0--0-0----0--|
C--0-----------------3---------3----|
G-----------------------------------|
C-----------------------------------|

         don't call me cynical
D----------------------------------------------|
A--8--8--8---5--5-5--5--5-5-3-3-3--3-3-3--3-3--|
F--x--x--x---x--x-x--x--x-x-x-x-x--x-x-x--x-x--|
C--8--8--8---5--5-5--5--5-5-3-3-3--3-3-3--3-3--|
G----------------------------------------------|
C----------------------------------------------|

       i can't provide   a guarantee
D-----------------------------------|
A------3--3-3--3-3-------3-3-3------|
F----2---2-2----2-2----0--0-0----0--|
C--0-----------------3---------3----|
G-----------------------------------|
C-----------------------------------|

            don't call me cynical
D-------------------------------------------------|
A--10--10--10---5--5-5--5--5-5-3-3-3--3-3-3--3-3--|
F---x---x---x---x--x-x--x--x-x-x-x-x--x-x-x--x-x--|
C--10--10--10---5--5-5--5--5-5-3-3-3--3-3-3--3-3--|
G-------------------------------------------------|
C-------------------------------------------------|

               time                  and  time  again.....
D---------------------------------------------------------|
A---------------------------------------------------------|
F---------------------------------------------------------|
C---------------------------------------------------------|
G--5--5-5-3-5--5--5--5-5--3-5-5--5-5-3-5--5--5--5-5--3-5--|
C--0--0-0-0-0--0--0--0-0--0-0-0--0-0-0-0--0--0--0-0--0-0--|

         i'm finding  a   better  defense
D----------------------------------------------------|
A----------------------------------------------------|
F----------------------------------------------------|
C--5--5--5-5--3--3-3-3--3--8--8-8-8-8--7--7--7-7--7--|
G--5--5--5-5--3--3-3-3--3--8--8-8-8-8--7--7--7-7--7--|
C--5--5--5-5--3--3-3-3--3--8--8-8-8-8--7--7--7-7--7--|

          the  crime                 i  charged against...
D---------------------------------------------------------|
A---------------------------------------------------------|
F---------------------------------------------------------|
C---------------------------------------------------------|
G--5--5-5-3-5--5--5--5-5--3-5-5--5-5-3-5--5--5--5-5--3-5--|
C--0--0-0-0-0--0--0--0-0--0-0-0--0-0-0-0--0--0--0-0--0-0--|

         reminds me      to check your intent
D----------------------------------------------------|
A----------------------------------------------------|
F----------5-------------5----------5-------------5--|
C--5--5--3-5--5--5--5--3-5--5--5--3-5--5--5--5--3-5--|
G--5--5--3-3--5--5--5--3-3--5--5--3-3--5--5--5--3-3--|
C--5--5--3----5--5--5--3----5--5--3----5--5--5--3----|

Bridge
D-10-8-8-8--8-10-8-8-8--8-10-8-8-8-|
A--x-x-x-x--x--x-x-x-x--x--x-x-x-x-|
F--7-7-7-7--7--7-7-7-7--7--7-7-7-7-| repeat 4 times
C----------------------------------|
G----------------------------------|
C----------------------------------|

       i won't retreat   i will not bend
D-----------------------------------|
A------3--3-3--3-3-------3-3-3------|
F----2---2-2----2-2----0--0-0----0--|
C--0-----------------3---------3----|
G-----------------------------------|
C-----------------------------------|

         don't call me criminal
D----------------------------------------------|
A--8--8--8---5--5-5--5--5-5-3-3-3--3-3-3--3-3--|
F--x--x--x---x--x-x--x--x-x-x-x-x--x-x-x--x-x--|
C--8--8--8---5--5-5--5--5-5-3-3-3--3-3-3--3-3--|
G----------------------------------------------|
C----------------------------------------------|

       inform defeat   if i offend
D-----------------------------------|
A------3--3-3--3-3-------3-3-3------|
F----2---2-2----2-2----0--0-0----0--|
C--0-----------------3---------3----|
G-----------------------------------|
C-----------------------------------|

            don't call me criminal
D-------------------------------------------------|
A--10--10--10---5--5-5--5--5-5-3-3-3--3-3-3--3-3--|
F---x---x---x---x--x-x--x--x-x-x-x-x--x-x-x--x-x--|
C--10--10--10---5--5-5--5--5-5-3-3-3--3-3-3--3-3--|
G-------------------------------------------------|
C-------------------------------------------------|

               time                  and  time  again.....
D---------------------------------------------------------|
A---------------------------------------------------------|
F---------------------------------------------------------|
C---------------------------------------------------------|
G--5--5-5-3-5--5--5--5-5--3-5-5--5-5-3-5--5--5--5-5--3-5--|
C--0--0-0-0-0--0--0--0-0--0-0-0--0-0-0-0--0--0--0-0--0-0--|

         i'm finding  a   better  defense
D----------------------------------------------------|
A----------------------------------------------------|
F----------------------------------------------------|
C--5--5--5-5--3--3-3-3--3--8--8-8-8-8--7--7--7-7--7--|
G--5--5--5-5--3--3-3-3--3--8--8-8-8-8--7--7--7-7--7--|
C--5--5--5-5--3--3-3-3--3--8--8-8-8-8--7--7--7-7--7--|

          the  crime                 i  charged against...
D---------------------------------------------------------|
A---------------------------------------------------------|
F---------------------------------------------------------|
C---------------------------------------------------------|
G--5--5-5-3-5--5--5--5-5--3-5-5--5-5-3-5--5--5--5-5--3-5--|
C--0--0-0-0-0--0--0--0-0--0-0-0--0-0-0-0--0--0--0-0--0-0--|

         reminds me      to check your intent
D----------------------------------------------------|
A----------------------------------------------------|
F----------5-------------5----------5-------------5--|
C--5--5--3-5--5--5--5--3-5--5--5--3-5--5--5--5--3-5--|
G--5--5--3-3--5--5--5--3-3--5--5--3-3--5--5--5--3-3--|
C--5--5--3----5--5--5--3----5--5--3----5--5--5--3----|

solo
D-10--10-10--10-10--10-10--10-10--10-10-8--8-8--8-8--8-8--8-8--8-8-|
A--x---x--x---x--x---x--x---x--x---x--x----x-x--x-x--x-x--x-x--x-x-|
F--7---7--7---7--7---7--7---7--7---7--7-5--5-5--5-5--5-5--5-5--5-5-|
C------------------------------------------------------------------|
G------------------------------------------------------------------|
C------------------------------------------------------------------|

D-10--10-10--10-10--10-10--10-10--10-10-8--8-8--8-8--8-8--8-8--8-8-|
A--x---x--x---x--x---x--x---x--x---x--x----x-x--x-x--x-x--x-x--x-x-|
F--7---7--7---7--7---7--7---7--7---7--7-5--5-5--5-5--5-5--5-5--5-5-|
C------------------------------------------------------------------|
G------------------------------------------------------------------|
C------------------------------------------------------------------|

D-10-8-8-8--8-10-8-8-8--8-10-8-8-8-10-8-8-8--8-10-8-8-8--8-10-8-8-8-|
A--x-x-x-x--x--x-x-x-x--x--x-x-x-x--x-x-x-x--x--x-x-x-x--x--x-x-x-x-|
F--7-5-5-5--5--7-5-5-5--5--7-5-5-5--7-5-5-5--5--7-5-5-5--5--7-5-5-5-|
C-------------------------------------------------------------------|
G-------------------------------------------------------------------|
C-------------------------------------------------------------------|

D-10-8-8-8--8-10-8-8-8--8-10-8-8-8-10-8-8-8--8-10-8-8-8--8-10-8-8-8-|
A--x-x-x-x--x--x-x-x-x--x--x-x-x-x--x-x-x-x--x--x-x-x-x--x--x-x-x-x-|
F--7-5-5-5--5--7-5-5-5--5--7-5-5-5--7-5-5-5--5--7-5-5-5--5--7-5-5-5-|
C-------------------------------------------------------------------|
G-------------------------------------------------------------------|
C-------------------------------------------------------------------|

D-(10)--------------------------(8)--------------------------|
A---x----------------------------x---------------------------|
F--(7)--------------------------(5)-----------9b(full)-9---7-|
C----------------------------------------------------------x-|
G----------------------------------------------------------5-|
C------------------------------------------------------------|

repeat bridge a few times then repeat chorus

outro
D----------------------------------------------------|
A----------------------------------------------------|
F----------5-------------5----------5-------------5--|
C--5--5--3-5--5--5--5--3-5--5--5--3-5--5--5--5--3-5--| repeat 2 times
G--5--5--3-3--5--5--5--3-3--5--5--3-3--5--5--5--3-3--|
C--5--5--3----5--5--5--3----5--5--3----5--5--5--3----|

That's about it.

There may be a few bits of the song missed out but there mostly repeated riffs which are 
wrote down. Feel free to add anything in.
            
Hard to play? Try these video lessons and learn fast. | Correct




comments powered by Disqus
↑ Back to top | Tablatures and chords are parodies/interpretations of the original songs. You may use it for private study, scholarship, research or language learning purposes only