» » »

Stay Tabs (ver.2)

Artists:  A B C D E F G H I J K L M N O P Q R S T U V W X Y Z # 

Stay Tabs (ver.2)

Mad At Gravity
Rating:
0/5 (0 votes)

Hard to play? Try these video lessons and learn fast.
                (Acoustic)
capo 1fret
D, A, D, G, B, E

----------------------------------------------------|--5-5-5-5-5-5-5-5-5-5-5-|
----------------------------------------------------|--3-3-3-3-3-3-3-3-3-3-3-|
-11---11---11-11--\--7--7-\-4--4--4--4--4-4---------|------------------------|
-11---11---11-11--\--7--7-\-4--4--4--4--4-4-/-4-4-/-|------------------------|
-9----9----9--9---\--5--5-\-2--2--2--2--2-2-/-4-4-/-|------------------------|
-9----9----9--9---\--5--5-\-2--2--2--2--2-2-/-4-4-/-|------------------------|


-5-5-2-2-2-2-2-2-2-2-2-2-2-2-2-2-2-2-|------------------------|--------------|
-3-3-3-3-3-3-3-3-3-3-5-5-5-5-3-3-3-3-|--------0---------3-0---|-3-/-5-5-5-5--|
-------------------------------------|--4-2-4---2-4-2-4-----2-|-4-/-6-6-6h7--|
-------------------------------------|------------------------|--------------|
-------------------------------------|------------------------|--------------|
-------------------------------------|------------------------|--------------|


--------|--------------------------------------------------------------------|
-5-/-7--|--------------------------------------------------------------------|
-7-/-9--|--------------------------------------------------------------------|
--------|--------------------------------------------------------------------|
--------|--------------------------------------------------------------------|
--------|--------------------------------------------------------------------|
            
Hard to play? Try these video lessons and learn fast. | Correct




comments powered by Disqus
↑ Back to top | Tablatures and chords are parodies/interpretations of the original songs. You may use it for private study, scholarship, research or language learning purposes only