» » »

Maclean Dougie, This Love Will Carry Tabs (ver.1)

Artists:  A B C D E F G H I J K L M N O P Q R S T U V W X Y Z # 

This Love Will Carry Tabs (ver.1)

Maclean Dougie Tabs
 Rating:
4/5 (4 votes)
This Love Will Carry lessons Tabs too difficult? Try these video lessons and learn fast
                By Dougie MacLean

Capo V; standard tuning

I think this is pretty close to what Dougie is doing here.  As always,
if somebody out there knows better than I do, please POST it!

Intro:

  C                Fmaj7            C                Fmaj7
E ----------------|----------------|----------------|----------------|
B ------1-------1-|------1-------1-|------1-------1-|------1-------1-|
G ----0-------0---|----2-------2---|----0-------0---|----2-------2---|
D --2-------2-----|--3-------3-----|--2-------2-----|--3-------3-----|
A 3-------3-------|0-------0-------|3-------3-------|0-------0-------|
E ----------------|----------------|----------------|----------------|

Verse:

  C                Am               F                Em7
E ----------------|----------------|----------------|----------0-----|
B ------1-------1-|------1-------1-|------1-------1-|------3-----0---|
G ----0-------0---|----2-------2---|----2-------2---|----0---------0-|
D --2-------0-----|--2-------2-----|--3-------3-----|--2-------------|
A 3-------2-------|0---------------|----------------|----------------|
E ----------------|--------3-------|1-------1-------|0-------0-------|

  It's a thin line that leads us and keeps a man from shame

  C                Am               F                G
E ----------------|----------------|----------------|----------------|
B ------1-------1-|------1-------1-|------1-------1-|------0---------|
G ----0-------0---|----2-------2---|----2-------2---|----0-----0-----|
D --2-------0-----|--2-------2-----|--3-------3-----|--0-------------|
A 3-------2-------|0---------------|----------------|------------0-2-|
E ----------------|--------3-------|1-------1-------|3-------3-------|

  And dark clouds quickly gather along the way he came

  C                Am               F                Em7
E ----------------|----------------|----------------|----------0-----|
B ------1-------1-|------1-------1-|------1-------1-|------3-----0---|
G ----0-------0---|----2-------2---|----2-------2---|----0---------0-|
D --2-------0-----|--2-------2-----|--3-------3-----|--2-------------|
A 3-------2-------|0---------------|----------------|----------------|
E ----------------|--------3-------|1-------1-------|0-------0-------|

  There's fear out on the mountain and death out on the plain

  C                Am               F                G
E ----------------|----------------|----------------|----------------|
B ------1-------1-|------1-------1-|------1-------1-|0---1---3-------|
G ----0-------0---|----2-------2---|----2-------2---|--0---0---0---0-|
D --2-------0-----|--2-------2-----|--3-------3-----|------------0---|
A 3-------2-------|0---------------|----------------|----0---2-------|
E ----------------|--------3-------|1-------1-------|3---------------|

  There's heartbreak and heart-ache in the shadow of the flame

Chorus:

  C                Am               C                Fmaj7
E ----------------|----------------|----------------|----------------|
B ------1-------1-|------1-------1-|------1-------1-|------1-------1-|
G ----0-------0---|----2-------2---|----0-------0---|----2-------2---|
D --2-------0-----|--2-------2-----|--2-------0-----|--3-------3-----|
A 3-------2-------|0---------------|3-------2-------|0-------0-------|
E ----------------|--------3-------|----------------|----------------|

  But this love will carry, this love will carry me

  C                Am               Fmaj7             
E ----------------|----------------|--------------0-|----------------|
B ------1-------1-|------1-------1-|------1---------|------1-------1-|
G ----0-------0---|----2-------2---|----2-------2---|----2-----2-----|
D --2-------0-----|--2-------2-----|--3-------3-----|--3---------3---|
A 3-------2-------|0---------------|0-------0-------|0-------0-------|
E ----------------|--------3-------|----------------|----------------|

  I know this love will carry me

Lyrics:

It's a thin line that leads us, and keeps a man from shame
And dark clouds quickly gather along the way he came
There's fear out on the mountain and death out on the plain
There's heartbreak and heart-ache in the shadow of the flame

Chorus:
But this love will carry, this love will carry me
I know this love will carry me

The strongest web will tangle, the sweetest bloom will fall
And somewhere in the distance we try and catch it all
Success lasts for a moment and failure's always near
And you look down at your blistered hands as turns another year

Chorus

These days are golden, they must not waste away
For our time is like that flower and soon it will decay
And though by storms we're weakened, uncertainty is sure
And like the coming of the dawn it's ours forevermore

Chorus
            
Submit corrections

comments powered by Disqus
↑ Back to top | Maclean Dougie Tabs for This Love Will Carry. Lyrics for acoustic guitar and electric guitar. Tablatures and chords are parodies/interpretations of the original songs. You may use it for private study, scholarship, research or language learning purposes only