» » »

Maclean Dougie, She Loves Me Tabs (ver.1)

Artists:  A B C D E F G H I J K L M N O P Q R S T U V W X Y Z # 

She Loves Me Tabs (ver.1)

Maclean Dougie Tabs
 Rating:
4/5 (4 votes)
She Loves Me lessons Tabs too difficult? Try these video lessons and learn fast
                She Loves Me (When I Try)
By Dougie MacLean

Capo 1; tuning DADABD or Capo 3: tuning CGCGAC

This tuning is kinda funky but it works pretty well.  My guitar
teacher actually transcribed this one.  Be careful about the changes

The "3s5" is a slide from the 3rd to the 5th fret.  I recommend using
your ring finger for this.  You need to make this slide real fast to
get the desired effect.

I know you Dougie fans are out there!  I'm posting my stuff and I'm
expecting YOU to do the same.


  Intro(4x)
D ------0-|----------0-----||------0-|----------0-----|
B --------|----------------||--------|----------------|
A ----0---|------0-------0-||--0-----|------0-------0-|
D --2-----|----0-------0---||----2---|----0-------0---|
A 0-------|3s5-----5-------||0-------|3s5-----5-------|
D --------|----------------||--------|----------------|

                        Here comes the morning
                             comes the evening

D ------0-|----------0-----|--0-----|----------0-----|
B --------|----------------|--------|----------------|
A --0-----|------0-------0-|------0-|------0---------|
D ----2---|----0-------0---|----0---|----0-------0---|
A 0-------|3s5-----5-------|5-------|----------------|
D --------|----------------|--------|5-------4-------|

  cruel and clear     there is no    reasonable
  it's still the same we are just    passengers upon

D 0-----0-|------0-------0-|------0-------0-|------0-||
B --------|--2-------------|0---------0-----|--0-----||
A --0-----|----------0-----|----------------|--------||
D ----2---|----4-------4---|----0-------0---|----0---||
A 0-------|2-------0-------|----------------|--------||
D --------|----------------|5-------5-------|5-------||

  chance that it might disappear             and here
  this godless ghostly      train

Chorus:

D ------0-|----------0-----|0-----0-|----------0-----|
B --------|----------------|--------|----------------|
A --0-----|------0---------|--0-----|------0-------0-|
D ----2---|----0-------0---|----2---|----0-------0---|
A 0-------|----------------|0-------|3s5-----5-------|
D --------|5-------4-------|--------|----------------|

  But she loves    me       when I   try         She

D ------0-------0-|------0-|------0-------0-|------0-|
B --2-------------|--------|0---------0-----|--------|
A ----------0-----|--------|----------------|--0-----|
D ----4-------4---|----4---|----0-------0---|----2---|
A 2-------0-------|--------|----------------|0-------|
D ----------------|4-------|5-------5-------|--------|

  thinks about me when I'm gone              Oh she

D ----------0-----|0-----0-|------0-------0-|----------0-----|--0-----|
B ----------------|--------|--2-------------|----------------|--------|
A ------0---------|--0-----|----------0-----|------0-------0-|------0-|
D ----0-------0---|----2---|----4-------4---|----0-------0---|----0---|
A ----------------|0-------|2-------0-------|3s5-----5-------|5-------|
D 5-------4-------|--------|----------------|----------------|--------|

  helps   me       when I   can't   hold     on

Lyrics:

Here comes the morning, cruel and clear
There is no reasonable chance that it might disappear
Here comes the evening, it's still the same
We are just passengers upon a godless ghostly train

Chorus:
But she loves me when I try
She thinks about me when I'm gone
Oh she helps me when I can't hold on

It's another market, another sale
Another reason to believe we're ahead and cannot fail
But there's deadly dangers we must endure
There are so many different ways we never can be sure

Chorus

So there is no ending to this tale
There is no destination on this long and restless rail
And here comes the morning, cruel and clear
There is no reasonable chance that it might disappear

Chorus
            
Submit corrections

comments powered by Disqus
↑ Back to top | Maclean Dougie Tabs for She Loves Me. Lyrics for acoustic guitar and electric guitar. Tablatures and chords are parodies/interpretations of the original songs. You may use it for private study, scholarship, research or language learning purposes only