>
 >
Who We Are

Who We Are Guitar Tabs

Machine Head - Who We Are chords, tabs, tablatures, lyrics

Guitar lessons | Add/correct | Request | Top 50 tabs Artists:  A B C D E F G H I J K L M N O P Q R S T U V W X Y Z 0-9

Who We Are Guitar Tabs – Machine Head

CD, Sheet music, Poster

Do you like Who We Are? Share with your friends now
Tabs
Band:   Machine Head
Tuning: C# Standard (C#, F#, B, E, G#, C#)

Machine Head don't play in C# standard precisely... They are tuned to
C# Standard but then tuned up 40 cents sharper


On a Korg tuner it would look something like this

Tuner:
50                            x  50#
|--|--|--|--|-[-C#-]-|--|--|--|--|

The 'x' is where you want to be tuned to
I hope that helps anyway... xD

Also comment, correct, and please, please rate!!!


Acoustic Guitar: Robb Flynn
Guitar 1:        Robb Flynn
Guitar 2:        Phil Demmel

Tabbing Legend
Hammer on:          h
Pull off:           p
Slide up:           /
Slide down:         \
Pinch Harmonic:     PH
Bend:               BU(?)
Whammy Bar Rise:    WBR
Whammy Bar Lower:   WBL
Tremelo Pick:       Tr---
Trill:              tr

____________________________________________________________________________


Intro
Acoustic Guitar
|-0---------------|-1---------------|-0---------------|-3---------------|
|-1---------------|-1---------------|-1---------------|-0---------------|
|-2---------------|-2---------------|-0---------------|-0---------------|
|-2---------------|-3---------------|-2---------------|-0---------------|
|-0---------------|-3---------------|-3---------------|-2---------------|
|-----------------|-1---------------|-----------------|-3---------------|

|-0---------------|-1---------------|-0---------------|-7---------------|
|-1---------------|-1---------------|-1---------------|-7---------------|
|-2---------------|-2---------------|-0---------------|-8---------------|
|-2---------------|-3---------------|-2---------------|-9---------------|
|-0---------------|-3---------------|-3---------------|-9---------------|
|-----------------|-1---------------|-----------------|-7---------------|

____________________________________________________________________________


Verse 1
Guitar 1
|-------------------------------------------------|
|-------------------------------------------------|
|-------------------------------------------------|
|-7-----------------------------------------------|
|-7-----------------------------------------------|
|-5-----------------------------------------------|

|-------------------------------------------------|
|-------------------------------------------------|
|-------------------------------------------------|
|-------------------------8-8-8-8-8-8-8-8-8-8-8-8-|
|-------------------------8-8-8-8-8-8-8-8-8-8-8-8-|
|-------------------------6-6-6-6-6-6-6-6-6-6-6-6-|

|-------------------------------------------------|
|-------------------------------------------------|
|-------------------------------------------------|
|-7-----------------------------------------------|
|-7-----------------------------------------------|
|-5-----------------------------------------------|

|-------------------------------------------------|
|-------------------------------------------------|
|-------------------------------------------------|
|-------------------------3-3-3-3-3-3-3-3-3-3-3-3-|
|-------------------------3-3-3-3-3-3-3-3-3-3-3-3-|
|-------------------------1-1-1-1-1-1-1-1-1-1-1-1-|

Guitar 1
|-------------------------------------------------|
|-------------------------------------------------|
|-------------------------------------------------|
|-7-----------------------------------------------|
|-5-----------------------------------------------|
|-5-----------------------------------------------|
|
Guitar 2
|---------------------------------------------------|
|---------------------------------------------------|
|---------------------------------------------------|
|---------------------------------------------8p7h8-|
|-0-0-0-7p5h7-0-0-0-10p8h10-0-0-0-7p5h7-0-0-0-------|
|---------------------------------------------------|

Guitar 1
|-------------------------------------------------|
|-------------------------------------------------|
|-------------------------------------------------|
|-------------------------8-8-8-8-8-8-8-8-8-8-8-8-|
|-------------------------8-8-8-8-8-8-8-8-8-8-8-8-|
|-------------------------6-6-6-6-6-6-6-6-6-6-6-6-|
|
|Guitar 2
|---------------------------------------------------|
|---------------------------------------------------|
|---------------------------------------------------|
|-------------------------------------5-----------5-|
|-0-0-0-7p5h7-0-0-0-10p8h10-0-3-5-6-7---0-3-5-6-7---|
|---------------------------------------------------|

Guitar 1
|---------------------------------------------------|
|---------------------------------------------------|
|-17-----------------------16-----------------------|
|---------------------------------------------------|
|-15-----------------------14-----------------------|
|---------------------------------------------------|
|
Guitar 2
|---------------------------------------------------|
|---------------------------------------------------|
|---------------------------------------------------|
|---------------------------------------------8p7h8-|
|-0-0-0-7p5h7-0-0-0-10p8h10-0-0-0-7p5h7-0-0-0-------|
|---------------------------------------------------|

Guitar 1
|---------------------------------------------------|
|---------------------------------------------------|
|-14-----------------------12-----------------------|
|---------------------------------------------------|
|-12-----------------------10-----------------------|
|---------------------------------------------------|
|
|Guitar 2
|---------------------------------------------------|
|---------------------------------------------------|
|---------------------------------------------------|
|-------------------------------------5-----------5-|
|-0-0-0-7p5h7-0-0-0-10p8h10-0-3-5-6-7---0-3-5-6-7---|
|---------------------------------------------------|

Both guitars
|-------|
|-------|
|-------|
|-2-----|
|-2-----|
|-0-----|

Break

Both guitars
|---------------------------------------------------|
|---------------------------------------------------|
|---------------------------------------------------|
|---------------------------------------------8p7h8-|
|-------7p5h7-------10p8h10-------7p5h7-------------|
|-0-0-0-------0-0-0---------0-0-0-------0-0-0-------|

|---------------------------------------------------|
|---------------------------------------------------|
|---------------------------------------------------|
|---------------------------------------------------|
|-------7p5h7-------10p8h10-----------5-----------5-|
|-0-0-0-------0-0-0---------0-3-5-6-7---0-3-5-6-7---|

|---------------------------------------------------|
|---------------------------------------------------|
|---------------------------------------------------|
|---------------------------------------------8p7h8-|
|-------7p5h7-------10p8h10-------7p5h7-------------|
|-0-0-0-------0-0-0---------0-0-0-------0-0-0-------|

|---------------------------------------------------|
|---------------------------------------------------|
|---------------------------------------------------|
|---------------------------------------------------|
|-------7p5h7-------10p8h10-----------5-----------5-|
|-0-0-0-------0-0-0---------0-3-5-6-7---0-3-5-6-7---|

|-------------------------|-------------------------|
|-------------------------|-------------------------|
|-------------------------|-------------------------|
|-7-7-7-7-----7-----7-7-7-|-7-----7-----8-8-8-8-8-8-|
|-7-7-7-7-----7-----7-7-7-|-7-----7-----8-8-8-8-8-8-|
|-5-5-5-5-----5-----5-5-5-|-5-----5-----6-6-6-6-6-6-|

____________________________________________________________________________


Verse 2
Both guitars
||---------------------------------------------------|
|o---------------------------------------------------|
||---------------------------------------------------|
||---------------------------------------------8p7h8-|
|o-------7p5h7-------10p8h10-------7p5h7-------------|
||-0-0-0-------0-0-0---------0-0-0-------0-0-0-------|

|---------------------------------------------------||
|---------------------------------------------------o|
|---------------------------------------------------||
|---------------------------------------------------||
|-------7p5h7-------10p8h10-----------5-----------5-o|
|-0-0-0-------0-0-0---------0-3-5-6-7---0-3-5-6-7---||

Both guitars
|---------------------------------------------------|
|---------------------------------------------------|
|---------------------------------------------8p7h8-|
|-------7p5h7-------10p8h10-------7p5h7-------------|
|-0-0-0-------0-0-0---------0-0-0-------0-0-0-------|
|---------------------------------------------------|

|---------------------------------------------------|
|---------------------------------------------------|
|---------------------------------------------------|
|-------7p5h7-------10p8h10-----------5-----------5-|
|-0-0-0-------0-0-0---------0-3-5-6-7---0-3-5-6-7---|
|---------------------------------------------------|

Both guitars
|---------------------------------------------------|
|---------------------------------------------------|
|---------------------------------------------------|
|---------------------------------------------8p7h8-|
|-------7p5h7-------10p8h10-------7p5h7-------------|
|-0-0-0-------0-0-0---------0-0-0-------0-0-0-------|

|---------------------------------------------------|
|---------------------------------------------------|
|---------------------------------------------------|
|---------------------------------------------------|
|-------7p5h7-------10p8h10-----------5-----------5-|
|-0-0-0-------0-0-0---------0-3-5-6-7---0-3-5-6-7---|

Guitar 1
|-------------------------|
|-------------------------|
|-9-9-9-9-9-9-9-9-9-9-9-9-|
|-------------------------|
|-7-7-7-7-7-7-7-7-7-7-7-7-|
|-------------------------|

____________________________________________________________________________


Chorus
|-------------------------|-------------------------|
|-------------------------|-------------------------|
|-------------------------|-------------------------|
|-7-----------------------|-3-----------------------|
|-7-----------------------|-3-----------------------|
|-5-----------------------|-1-----------------------|

|-------------------------|-------------------------|
|-------------------------|-------------------------|
|-5-----------------------|-------------------------|
|-5-----------------------|-5-----------------2-----|
|-3-----------------------|-5-----------------2-----|
|-------------------------|-3-----------------0-----|

|-------------------------|-------------------------|
|-------------------------|-------------------------|
|-------------------------|-------------------------|
|-7-----------------------|-3-----------------------|
|-7-----------------------|-3-----------------------|
|-5-----------------------|-1-----------------------|


|-------------------------|-------------------------|
|-------------------------|-------------------------|
|-5-----------------------|-------------------------|
|-5-----------------------|-2-----------------------|
|-3-----------------------|-2-----------------------|
|-------------------------|-0-----------------------|

|-------------------------|-------------------------|
|-------------------------|-------------------------|
|-------------------------|-------------------------|
|-7-----------------------|-3-----------------------|
|-7-----------------------|-3-----------------------|
|-5-----------------------|-1-----------------------|


|-------------------------|-------------------------|
|-------------------------|-------------------------|
|-5-----------------------|-------------------------|
|-5-----------------------|-5-----------------------|
|-3-----------------------|-5-----------------------|
|-------------------------|-3-----------------------|

|-------------------------|-------------------------|
|-------------------------|-------------------------|
|-------------------------|-------------------------|
|-3-----------------------|-------------------------|
|-3-----------------------|-------------------------|
|-1-----------------------|-------------------------|

|-------------------------|-------------------------|
|-------------------------|-------------------------|
|-------------------------|-------------------------|
|-------------------------|-------------------------|
|-5h7-7-7-7-7-5h7-7-7-7-7-|-5h7-7-7-7-7-5h7-7-7-7-7-|
|-------------------------|-------------------------|

____________________________________________________________________________


Verse 3
Both guitars
|-------------------------|-------------------------|
|-------------------------|-------------------------|
|-9-9-9-9-----9-----9-9-9-|-9-----9-----9-9-9-9-9-9-|
|-9-9-9-9-----9-----9-9-9-|-9-----9-----9-9-9-9-9-9-|
|-7-7-7-7-----7-----7-7-7-|-7-----7-----7-7-7-7-7-7-|
|-------------------------|-------------------------|

____________________________________________________________________________


Repeat Verse 2 from the 3rd to 7th box

Repeat Chorus

____________________________________________________________________________


Verse 4
Both guitars
|--------------------------------------------------------|
|--------------------------------------------------------|
|-9-10-7-9----7------------------------------------------|
|----------10---9-10-7-9----7----------------------------|
|------------------------10---8-10-7-8----7--------------|
|--------------------------------------10---8-10-7-8-5-7-|

____________________________________________________________________________


Verse 5
Guitar 1
|-------------------------------------|-------------------------|
|-------------------------------------|-------------------------|
|-10-10-10-10-10-10-10-10-10-10-10-10-|-9-9-9-9-9-9-9-9-9-9-9-9-|
|-------------------------------------|-------------------------|
|--8--8--8--8--8--8--8--8--8--8--8--8-|-7-7-7-7-7-7-7-7-7-7-7-7-|
|-------------------------------------|-------------------------|
|
|Guitar 2
|-------------------------|-------------------------|
|-------------------------|-------------------------|
|-------------------------|-5-----------------------|
|-3-----------------------|-5-----------------------|
|-3-----------------------|-3-----------------------|
|-1-----------------------|-------------------------|

Both guitars
|-------------------------|-------------------------|
|-------------------------|-------------------------|
|-------------------------|-------------------------|
|-------------------------|-------------------------|
|-3h5-5-5-5-5-3h5-5-5-5-5-|-3h5-5-5-5-5-3h5-5-5-5-5-|
|-------------------------|-------------------------|

Guitar 1
|-------------------------------------|-------------------------|
|-------------------------------------|-------------------------|
|-10-10-10-10-10-10-10-10-10-10-10-10-|-9-9-9-9-9-9-9-9-9-9-9-9-|
|-------------------------------------|-------------------------|
|--8--8--8--8--8--8--8--8--8--8--8--8-|-7-7-7-7-7-7-7-7-7-7-7-7-|
|-------------------------------------|-------------------------|
|
|Guitar 2
|-------------------------|-------------------------|
|-------------------------|-------------------------|
|-------------------------|-5-----------------------|
|-3-----------------------|-5-----------------------|
|-3-----------------------|-3-----------------------|
|-1-----------------------|-------------------------|

Both guitars
|-------------------------|----------------------------|
|-------------------------|----------------------------|
|-3-----------5-----------|-7------------12---10---9---|
|-3-----------5-----------|-7--------------------------|
|-1-----------3-----------|-5------------10----8---7---|
|-------------------------|----------------------------|

Guitar 1
|-------------------------------------|-------------------------|
|-------------------------------------|-------------------------|
|-10-10-10-10-10-10-10-10-10-10-10-10-|-9-9-9-9-9-9-9-9-9-9-9-9-|
|-------------------------------------|-------------------------|
|--8--8--8--8--8--8--8--8--8--8--8--8-|-7-7-7-7-7-7-7-7-7-7-7-7-|
|-------------------------------------|-------------------------|
|
|Guitar 2
|-------------------------|-------------------------|
|-------------------------|-------------------------|
|-------------------------|-5-----------------------|
|-3-----------------------|-5-----------------------|
|-3-----------------------|-3-----------------------|
|-1-----------------------|-------------------------|

Both guitars
|-------------------------|-------------------------|
|-------------------------|-------------------------|
|-------------------------|-------------------------|
|-------------------------|-------------------------|
|-3h5-5-5-5-5-3h5-5-5-5-5-|-3h5-5-5-5-5-3h5-5-5-5-5-|
|-------------------------|-------------------------|

Guitar 1
|-------------------------------------------------------------------------|
|-------------------------------------------------------------------------|
|-12-12-12-12-12-12-12-12-12-12-12-12-12-12-12-12-12-12-10-10-10-12-12-12-|
|-------------------------------------------------------------------------|
|-10-10-10-10-10-10-10-10-10-10-10-10-10-10-10-10-10-10--8--8--8-10-10-10-|
|-------------------------------------------------------------------------|
|
|Guitar 2
|-------------------------------------------------|
|-------------------------------------------------|
|-------------------------------------------------|
|-5-----------------------------------------------|
|-5-----------------------------------------------|
|-3-----------------------------------------------|

Guitar 1
|-------------------------------------------------------------------------|
|-------------------------------------------------------------------------|
|-14-14-14-14-14-14-14-14-14-14-14-14-18-18-18-18-18-18-18-18-18-18-18-18-|
|-------------------------------------------------------------------------|
|-12-12-12-12-12-12-12-12-12-12-12-12-14-14-14-14-14-14-14-14-14-14-14-14-|
|-------------------------------------------------------------------------|
|
|Guitar 2
|-------------------------------------------------|
|-------------------------------------------------|
|-------------------------------------------------|
|-7-----------------------------------------------|
|-7-----------------------------------------------|
|-5-----------------------------------------------|

____________________________________________________________________________


Breakdown
Guitar 1
|-------------------------|-------------------------|
|-------------------------|-------------------------|
|-------------------------|-------------------------|
|-7-7-7-7-7-7-7-----------|-------------------------|
|-5-5-5-5-5-5-5-----------|-------------------------|
|-------------------------|-------------------------|
|
|Guitar 2
|-------------------------|--------------------------|
|-------------------------|--------------------------|
|-------------------------|--------------------------|
|-7-7-7-7-7-7-7-0-2-3-0-3-|-5-0-5-7-0-7-8-0-8-10-0-0-|
|-5-5-5-5-5-5-5-----------|--------------------------|
|-------------------------|--------------------------|

Guitar 1
|-------------------------|-------------------------|
|-------------------------|-------------------------|
|-------------------------|-------------------------|
|-7-7-7-7-7-7-7-----------|-------------------------|
|-5-5-5-5-5-5-5-----------|-------------------------|
|-------------------------|-------------------------|
|
|Guitar 2
|----------------------------|-----------------------------|
|----------------------------|-----------------------------|
|----------------------------|-----------------------------|
|-7-7-7-7-7-7-7-0-14-15-0-12-|-14-0-10-12-0-8-10-0-7-8-0-0-|
|-5-5-5-5-5-5-5--------------|-----------------------------|
|----------------------------|-----------------------------|

Guitar 1
|-------------------------|-------------------------|
|-------------------------|-------------------------|
|-------------------------|-------------------------|
|-5-5-5-5-5-5-5-----------|-------------------------|
|-3-3-3-3-3-3-3-----------|-------------------------|
|-------------------------|-------------------------|
|
|Guitar 2
|-------------------------|--------------------------|
|-------------------------|--------------------------|
|-------------------------|--------------------------|
|-5-5-5-5-5-5-5-0-2-3-0-3-|-5-0-5-7-0-7-8-0-8-10-0-0-|
|-3-3-3-3-3-3-3-----------|--------------------------|
|-------------------------|--------------------------|

Guitar 1
|----------------------------|----------------------------------|
|----------------------------|----------------------------------|
|----------------------------|----------------15p14\12-14p12----|
|-3-3-3-3-3-3-3-0-17-19-0-15-|-17-0-14-15-0-0----------------15-|
|-1-1-1-1-1-1-1--------------|----------------------------------|
|----------------------------|----------------------------------|
|
|Guitar 2
|----------------------------|--------------------------------|
|----------------------------|--------------------------------|
|----------------------------|----------------12p10\9-10p9----|
|-3-3-3-3-3-3-3-0-14-15-0-12-|-14-0-10-12-0-0--------------12-|
|-1-1-1-1-1-1-1--------------|--------------------------------|
|----------------------------|--------------------------------|

____________________________________________________________________________


Solo 1
Guitar 2 (Rhythm)
|-------------------------|-------------------------|
|-------------------------|-------------------------|
|-------------------------|-5-----------------------|
|-3-----------------------|-5-----------------------|
|-3-----------------------|-3-----------------------|
|-1-----------------------|-------------------------|

|-------------------------|-------------------------|
|-------------------------|-------------------------|
|-------------------------|-------------------------|
|-------------------------|-------------------------|
|-3h5-5-5-5-5-3h5-5-5-5-5-|-3h5-5-5-5-5-3h5-5-5-5-5-|
|-------------------------|-------------------------|

|-------------------------|-------------------------|
|-------------------------|-------------------------|
|-------------------------|-5-----------------------|
|-3-----------------------|-5-----------------------|
|-3-----------------------|-3-----------------------|
|-1-----------------------|-------------------------|

|-------------------------|----------------------------|
|-------------------------|----------------------------|
|-3-----------5-----------|-7------------12---10---9---|
|-3-----------5-----------|-7--------------------------|
|-1-----------3-----------|-5------------10----8---7---|
|-------------------------|----------------------------|

|-------------------------|-------------------------|
|-------------------------|-------------------------|
|-------------------------|-5-----------------------|
|-3-----------------------|-5-----------------------|
|-3-----------------------|-3-----------------------|
|-1-----------------------|-------------------------|

|-------------------------|-------------------------|
|-------------------------|-------------------------|
|-------------------------|-------------------------|
|-------------------------|-------------------------|
|-3h5-5-5-5-5-3h5-5-5-5-5-|-3h5-5-5-5-5-3h5-5-5-5-5-|
|-------------------------|-------------------------|

|-------------------------------------------------|
|-------------------------------------------------|
|-------------------------------------------------|
|-5-----------------------------------------------|
|-5-----------------------------------------------|
|-3-----------------------------------------------|

|-------------------------------------------------|
|-------------------------------------------------|
|-------------------------------------------------|
|-7-----------------------------------------------|
|-7-----------------------------------------------|
|-5-----------------------------------------------|

Guitar 1 (Lead)
|------------------------------20-----17---20---|
|-20BU(22)-----20BU(22)(20)-18------------------|
|-----------------------------------------------|
|-----------------------------------------------|
|-----------------------------------------------|
|-----------------------------------------------|

|-20BU(22)-(20)-17------17h18p17-15h17p15-------------------|
|-----------------------------------------18-17-15----------|
|--------------------------------------------------17-15-14-|
|-----------------------------------------------------------|
|-----------------------------------------------------------|
|-----------------------------------------------------------|

|-17p13------13-17p13--18p13---15p12------12-15p12--17p12---|
|------13--13--------13-----13------13--13--------13-----13-|
|--------14---------------------------12--------------------|
|-----------------------------------------------------------|
|-----------------------------------------------------------|
|-----------------------------------------------------------|

|-12tr13-10tr12-8tr10----------------------------------|
|---------------------11tr13-10tr11-8tr10--------------|
|-----------------------------------------10tr12-9tr10-|
|------------------------------------------------------|
|------------------------------------------------------|
|------------------------------------------------------|

|--------------------------------------12BU(13)-|
|--------------------------13-------10----------|
|-12BU(14)---(14PH)(12)p10----------------------|
|-----------------------------------------------|
|-----------------------------------------------|
|-----------------------------------------------|

|-(12)(13)(12)(13)------------12h13p12p10h12p10-------------|
|-----------------------------------------------13-13BU(15)-|
|-----------------------------------------------------------|
|-----------------------------------------------------------|
|-----------------------------------------------------------|
|-----------------------------------------------------------|

|-10tr12-12tr13-13tr15-12tr13-13tr15-15tr17-17tr18-15tr17-|
|---------------------------------------------------------|
|---------------------------------------------------------|
|---------------------------------------------------------|
|---------------------------------------------------------|
|---------------------------------------------------------|

|-17tr18-18tr20-20tr22-22BU(24)-----(22)(24)(22)(24)(22)(24)-----|
|----------------------------------------------------------------|
|----------------------------------------------------------------|
|----------------------------------------------------------------|
|----------------------------------------------------------------|
|----------------------------------------------------------------|

____________________________________________________________________________


Solo 2
Guitar 1 (Rhythm)
||-------------------------------------------------|
|o-------------------------------------------------|
||-------------------------------------------------|
||-------------------------------------------------|
|o-0-0-0-0-0-0-0-0-0-3p1h3-0-0-0-0-0-0-0-0-0-6p5h6-|
||-------------------------------------------------|

|-------------------------------------------------||
|-------------------------------------------------o|
|-------------------------------------------------||
|-------------------------------------------------||
|-0-0-0-0-0-0-0-0-0-3p1h3-0-0-0-6p5h6-0-0-0-3p1h3-o|
|-------------------------------------------------||

|-------------------------------------------------|
|-------------------------------------------------|
|-9-------5-------7-------4-------5-------2-------|
|-9-------5-------7-------4-------5-------2-------|
|-7-------3-------5-------2-------3-------0-------|
|-------------------------------------------------|

|-------------------------------------------------|
|-------------------------------------------------|
|-------------------------------------------------|
|-------------------------------------------------|
|-0p2-2-2-2-2-0p2-2-2-2-2-0p2-2-2-2-2-0p2-2-2-2-2-|
|-------------------------------------------------|

Guitar 2 (Lead)
|-Floyd Rose Bar drop>>>>>>>>>>>>>>>>>>>>---------|
|-10h13p10h13p10h13p10h13p10h13p10h13p10----------|
|----------------------------------------12BU(14)-|
|-------------------------------------------------|
|-------------------------------------------------|
|-------------------------------------------------|

          Tr-------------------
|-------------------------------------------------|
|-------------------------------------------------|
|-7---7-7-7--BU(8)---(9)-----(9)(7)p5-------------|
|------------------------------------7p5----------|
|----------------------------------------7p6------|
|-------------------------------------------------|

|----------------------------------------------------------|
|-WBL-WBR-20p17----WBL-WBR-20p17----20p17--20p17--20BU(22)-|
|--------------h19--------------h19------19-----19---------|
|----------------------------------------------------------|
|----------------------------------------------------------|
|----------------------------------------------------------|

|-22p17-20p17----17-22p17-20p17----17-22p17-20p17----17----------|
|-------------20----------------20----------------20----20BU(22)-|
|----------------------------------------------------------------|
|----------------------------------------------------------------|
|----------------------------------------------------------------|
|----------------------------------------------------------------|

|------------------------------------15-14-12------------------------------|
|-15BU(17)---(17)(15)p12-15BU(17)-------------15-13-12---------------------|
|------------------------------------------------------14-12----14BU(16)---|
|------------------------------------------------------------14------------|
|--------------------------------------------------------------------------|
|--------------------------------------------------------------------------|

  Tr----------------------------------
|--------------------------------------|
|--------------------------------------|
|-2---BU---(3)---(4)-----------(4)-----|
|--------------------------------------|
|--------------------------------------|
|--------------------------------------|

|-------------------------------------|
|-------------------------------------|
|----------16----------------16-------|
|-16-17-19----19-17-16-17-19----19-17-|
|-------------------------------------|
|-------------------------------------|

|----------------------------17-19-20-|
|-------------------17-19-20----------|
|----------16-17-19-------------------|
|-16-17-19----------------------------|
|-------------------------------------|
|-------------------------------------|

Guitar 1
|-19-20-17-19----17-------------------------------------------------------|
|-------------20----19-20-17-19----17-------------------------------------|
|-------------------------------19----17-19-16-17----16-------------------|
|-------------------------------------------------19----17-19-16-17----16-|
|-------------------------------------------------------------------19----|
|-------------------------------------------------------------------------|
|
|Guitar 2
|-22-24-20-22----20-------------------------------------------------------|
|-------------24----22-24-20-22----20-------------------------------------|
|-------------------------------23----21-23-19-21----19-------------------|
|-------------------------------------------------22----21-22-19-21----19-|
|-------------------------------------------------------------------22----|
|-------------------------------------------------------------------------|

____________________________________________________________________________


Verse 6
Guitar 2 plays the below whilst guitar 1 plays a series of octaves
Guitar 2
|---------------------------------------------------|
|---------------------------------------------------|
|---------------------------------------------------|
|---------------------------------------------8p7h8-|
|-------7p5h7-------10p8h10-------7p5h7-------------|
|-0-0-0-------0-0-0---------0-0-0-------0-0-0-------|

|---------------------------------------------------|
|---------------------------------------------------|
|---------------------------------------------------|
|---------------------------------------------------|
|-------7p5h7-------10p8h10-----------5-----------5-|
|-0-0-0-------0-0-0---------0-3-5-6-7---0-3-5-6-7---|

Guitar 1
|-------------------------------------------------------------------------|
|-------------------------------------------------------------------------|
|-------------------------------------12-12-12-12-12-12-10-10-10-10-10-10-|
|-2-----------------------------------------------------------------------|
|-2-----------------------------------10-10-10-10-10-10--8--8--8--8--8--8-|
|-0-----------------------------------------------------------------------|

|-------------------------------------------------------------------------|
|-------------------------------------------------------------------------|
|-------------------------------------12-12-12-12-12-12-10-10-10-10-10-10-|
|-2-----------------------------------------------------------------------|
|-2-----------------------------------10-10-10-10-10-10--8--8--8--8--8--8-|
|-0-----------------------------------------------------------------------|

|-------------------------------------------------|
|-------------------------------------------------|
|-12-12-12-12-12-12-12-12-12-12-12-12-15-15-14-14-|
|-------------------------------------------------|
|-10-10-10-10-10-10-10-10-10-10-10-10-13-13-12-12-|
|-------------------------------------------------|

|-------------------------------------------------|
|-------------------------------------------------|
|-15-15-15-15-15-15-15-15-15-15-15-15-15-15-15-15-|
|-------------------------------------------------|
|-13-13-13-13-13-13-13-13-13-13-13-13-13-13-13-13-|
|-------------------------------------------------|

____________________________________________________________________________


Outro
Acoustic Guitar                                         Both guitars
|-0---------------|-1---------------|-0---------------|-----------------|
|-1---------------|-1---------------|-1---------------|-----------------|
|-2---------------|-2---------------|-0---------------|-----------------|
|-2---------------|-3---------------|-2---------------|-5---------------|
|-0---------------|-3---------------|-3---------------|-5---------------|
|-----------------|-1---------------|-----------------|-3---------------|

Guitar 1
|-------------------------|-------------------------|
|-------------------------|-------------------------|
|-------------------------|-------------------------|
|-7-----------------------|-3-----------------------|
|-7-----------------------|-3-----------------------|
|-5-----------------------|-1-----------------------|
|
|Guitar 2
|-------------------------|-------------------------|
|-------------------------|------------------10-----|
|-------------------------|------------10-----------|
|-------------7-----------|------10-----------------|
|-------7-----------7-----|-8-----------------------|
|-5-----------------------|-------------------------|

Guitar 1
|-------------------------|-------------------------|
|-------------------------|-------------------------|
|-5-----------------------|-------------------------|
|-5-----------------------|-5-----------------------|
|-3-----------------------|-5-----------------------|
|-------------------------|-3-----------------------|
|
|Guitar 2
|-------------------------|-------------------------|
|-------------------------|-------------------------|
|-------------5-----------|-------------------4-----|
|-------5-----------5-----|-------------5-----------|
|-3-----------------------|-------5-----------------|
|-------------------------|-3-----------------------|

|-------------------------|-------------------------|
|-------------------------|-------------------------|
|-------------------------|-------------------------|
|-7-----------------------|-3-----------------------|
|-7-----------------------|-3-----------------------|
|-5-----------------------|-1-----------------------|
|
|Guitar 2
|-------------------------|-------------------------|
|-------------------------|------------------10-----|
|-------------------------|------------10-----------|
|-------------7-----------|------10-----------------|
|-------7-----------7-----|-8-----------------------|
|-5-----------------------|-------------------------|

Guitar 1
|-------------------------|-------------------------|
|-------------------------|-------------------------|
|-5-----------------------|-------------------------|
|-5-----------------------|--9----------------------|
|-3-----------------------|-10----------------------|
|-------------------------|--7----------------------|
|
|Guitar 2
|-------------------------|-------------------------|
|-------------------------|-------------------------|
|-------------5-----------|------------10-----9-----|
|-------5-----------5-----|-7----10-----------------|
|-3-----------------------|-------------------------|
|-------------------------|-------------------------|

Guitar 1
|-------------------------|-------------------------|
|-------------------------|-------------------------|
|-------------------------|-------------------------|
|-7-----------------------|-------------------------|
|-7-----------------------|-------------------------|
|-5-----------------------|-------------------------|

Guitar 2
|-------------------------|-------------------------|
|-------------------------|-------------------------|
|-5-----------------------|-------------------------|
|-------------------------|-------------------------|
|-------------------------|-------------------------|
|-------------------------|-------------------------|

That's all guys please rate :)





Comments


Popular Machine Head tabs & chords
Violate 1 Bass Tabs
Aesthetics Of Hate 2 Tabs
American High 1 Tabs
Davidian Tabs
Nausea Tabs
Nothing Left Tabs
Seasons Wither Tabs
Silver 1 Tabs
Ten Ton Hammer Tabs
Violate Intro Tabs


Song lyrics



↑ Back to top | Tablatures and chords are parodies/interpretations of the original songs. You may use it for private study, scholarship, research or language learning purposes only
© 2014 AZChords.com Contact us | Privacy policy | DMCA | Add/correct tabs | Request tabs | Top 50 tabs