array
(
    
'vim1' => 'vim1'
    'machinehead' 
=> 'machinehead'
)
Vim Tabs (ver. 2) by Machine Head @ AZ CHORDS.COM
» » »

Vim Tabs (ver.2)

Artists:  A B C D E F G H I J K L M N O P Q R S T U V W X Y Z # 

Vim Tabs (ver.2)

Machine Head
Rating:
0/5 (0 votes)

Hard to play? Try these video lessons and learn fast.
                
Tuning: C# G# E B F# B (drop B)

Everything is there, except the solo...too bloody hard.

... - palm mute

Intro: Drums, then: 0:06
|---------|
|---------|
|---------|
|---------|
|---------|
|--0/16\--|

Intro 2: Both guitars 0:07
|--------------------------------|----------------------------------|
|--------------------------------|----------------------------------|
|--------------------------------|-----------------5-5-5-5-8-8-8-8--|
|--------------------------------|-----------------5-5-5-5-8-8-8-8--|
|--------------------------------|-----------------3-3-3-3-6-6-6-6--|
|--0-13\-0-1-0-1--0-13\-0-6-5-6--|--0-13\-0-1-0-1-------------------|


|--------------------------------|----------------------------------|
|--------------------------------|----------------------------------|
|--------------------------------|-----------------5-5-5-5----------|
|--------------------------------|-----------------5-5-5-5-1-1-1-1--|
|--------------------------------|-----------------3-3-3-3-1-1-1-1--|
|--0-13\-0-1-0-1--0-13\-0-6-5-6--|--0-13\-0-1-0-1----------1-1-1-1--|
                                                           . . . .

Guitar 1: 0:21
|--------------------------------|----------------------------------|
|--------------------------------|----------------------------------|
|--------------------------------|-----------------5-5-5-5-8-8-8-8--|
|--------------------------------|-----------------5-5-5-5-8-8-8-8--|
|--------------------------------|-----------------3-3-3-3-6-6-6-6--|
|--0-13\-0-1-0-1--0-13\-0-6-5-6--|--0-13\-0-1-0-1-------------------|


|--------------------------------|----------------------------------|
|--------------------------------|----------------------------------|
|--------------------------------|-----------------5-5-5-5----------|
|--------------------------------|-----------------5-5-5-5-1-1-1-1--|
|--------------------------------|-----------------3-3-3-3-1-1-1-1--|
|--0-16\-0-1-0-1--0-16\-0-6-5-6--|--0-16\-0-1-0-1----------1-1-1-1--|
                                                           . . . .

Guitar 2: 0:21
|--------------------------------|----------------------------------|
|--------------------------------|----------------------------------|
|--------------------------------|-----------------5-5-5-5-8-8-8-8--|
|--------------------------------|-----------------5-5-5-5-8-8-8-8--|
|--------------------------------|-----------------3-3-3-3-6-6-6-6--|
|--0-13\-0-1-0-1--0-13\-0-6-5-6--|--0-13\-0-1-0-1-------------------|


|--------------------------------|----------------------------------|
|--------------------------------|----------------------------------|
|--------------------------------|-----------------5-5-5-5----------|
|--------------------------------|-----------------5-5-5-5-1-1-1-1--|
|--------------------------------|-----------------3-3-3-3-1-1-1-1--|
|--0-13\-0-1-0-1--0-13\-0-6-5-6--|--0-13\-0-1-0-1----------1-1-1-1--|
                                                           . . . .

Verse 1: Guitar 1 0:34
|------------------------|-----------------------------------|
|------------------------|-----------------------------------|
|------------------------|-----------------------------------|
|--0---------------------|--0--------------------------------|
|--0-let ring------------|--0-let ring--0-0-0-0-0-0-0-0-0-0--|
|--0---------------------|--0-----------0-0-0-0-0-0-0-0-0-0--|
                                        . . . . . . . . . .

Guitar 2: 0:34
|------------------------|------------------------------------------|
|------------------------|------------------------------------------|
|------------------------|-----------------------2*-2*-3*-4*-5*-7*--|
|--0---------------------|--0---------------------------------------|
|--0-let ring------------|--0-let ring--0-0-0-0---------------------|
|--0---------------------|--0-----------0-0-0-0---------------------|
                                        . . . .


Both guitars: 0:42
|----------------------------------------|
|----------------------------------------|
|----------------------------------------|2 times
|--0-1-2-3--0-1-2-3--0-1-2-3--0-1-6-5-3--|
|--0-1-2-3--0-1-2-3--0-1-2-3--0-1-6-5-3--|
|--0-1-2-3--0-1-2-3--0-1-2-3--0-1-6-5-3--|


|------------------------------------------|
|------------------------------------------|
|------------------------------------------|
|--7-8-9-10--7-8-9-10--7-8-9-10--7-8-9-10--|
|--5-6-7--8--5-6-7--8--5-6-7--8--5-6-7--8--|
|------------------------------------------|


|----------------------------------------|
|----------------------------------------|
|----------------------------------------|
|--0-1-2-3--0-1-2-3--0-1-2-3--0-1-6-5-3--|
|--0-1-2-3--0-1-2-3--0-1-2-3--0-1-6-5-3--|
|--0-1-2-3--0-1-2-3--0-1-2-3--0-1-6-5-3--|


Pre-chorus 1: 0:59
|--------------------------------------------------------|
|--------------------------------------------------------|
|--------------------------------------------------------|
|--------------------------------------------------------|
|--------------------------------------------------------|
|--6-6-6-6-6-6-6-6-6-6-6-6-6-6-6-6--0-3-0-3-0-3-0-3-0-3--|
   . . . . . . . . . . . . . . . .


|--------------------------------------------------------|
|--------------------------------------------------------|
|--------------------------------------------------------|
|--------------------------------------------------------|
|--------------------------------------------------------|
|--6-6-6-6-6-6-6-6-6-6-6-6-6-6-6-6--0-3-0-3-0-3-0-3-0-3--|
   . . . . . . . . . . . . . . . .


|--------------------------------------------------------|
|--------------------------------------------------------|
|--------------------------------------------------------|
|--------------------------------------------------------|
|--------------------------------------------------------|
|--6-6-6-6-6-6-6-6-6-6-6-6-6-6-6-6--0-3-0-8-0-3-0-8-0-3--|
   . . . . . . . . . . . . . . . .


|-------------------------------------------------------|
|-------------------------------------------------------|
|-------------------------------------------------------|
|-----------------------------------6-8-6-8-6-8-6-8-8\--|
|-----------------------------------6-8-6-8-6-8-6-8-8\--|
|--6-6-6-6-6-6-6-6-6-6-6-6-6-6-6-6--6-8-6-8-6-8-6-8-8\--|
   . . . . . . . . . . . . . . . .


Chorus 1: Both guitars 1:13
|--------------------------------|----------------------------------|
|--------------------------------|----------------------------------|
|--------------------------------|-----------------5-5-5-5-8-8-8-8--|
|--------------------------------|-----------------5-5-5-5-8-8-8-8--|
|--------------------------------|-----------------3-3-3-3-6-6-6-6--|
|--0-13\-0-1-0-1--0-13\-0-6-5-6--|--0-13\-0-1-0-1-------------------|


|--------------------------------|----------------------------------|
|--------------------------------|----------------------------------|
|--------------------------------|-----------------5-5-5-5----------|
|--------------------------------|-----------------5-5-5-5-1-1-1-1--|
|--------------------------------|-----------------3-3-3-3-1-1-1-1--|
|--0-13\-0-1-0-1--0-13\-0-6-5-6--|--0-13\-0-1-0-1----------1-1-1-1--|
                                                           . . . .

Verse 2: Guitar 1 1:26
|------------------------|-----------------------------------|
|------------------------|-----------------------------------|
|------------------------|-----------------------------------|
|--0---------------------|--0--------------------------------|
|--0-let ring------------|--0-let ring--0-0-0-0-0-0-0-0-0-0--|
|--0---------------------|--0-----------0-0-0-0-0-0-0-0-0-0--|
                                        . . . . . . . . . .

Guitar 2: 1:26
|------------------------|------------------------------------------|
|------------------------|------------------------------------------|
|------------------------|-----------------------2*-2*-3*-4*-5*-7*--|
|--0---------------------|--0---------------------------------------|
|--0-let ring------------|--0-let ring--0-0-0-0---------------------|
|--0---------------------|--0-----------0-0-0-0---------------------|
                                        . . . .


Both guitars: 1:35
|----------------------------------------|
|----------------------------------------|
|----------------------------------------|2 times
|--0-1-2-3--0-1-2-3--0-1-2-3--0-1-6-5-3--|
|--0-1-2-3--0-1-2-3--0-1-2-3--0-1-6-5-3--|
|--0-1-2-3--0-1-2-3--0-1-2-3--0-1-6-5-3--|


|------------------------------------------|
|------------------------------------------|
|------------------------------------------|
|--7-8-9-10--7-8-9-10--7-8-9-10--7-8-9-10--|
|--5-6-7--8--5-6-7--8--5-6-7--8--5-6-7--8--|
|------------------------------------------|


|----------------------------------------|
|----------------------------------------|
|----------------------------------------|
|--0-1-2-3--0-1-2-3--0-1-2-3--0-1-6-5-3--|
|--0-1-2-3--0-1-2-3--0-1-2-3--0-1-6-5-3--|
|--0-1-2-3--0-1-2-3--0-1-2-3--0-1-6-5-3--|


Pre-chorus 2: 1:51
|--------------------------------------------------------|
|--------------------------------------------------------|
|--------------------------------------------------------|
|--------------------------------------------------------|
|--------------------------------------------------------|
|--6-6-6-6-6-6-6-6-6-6-6-6-6-6-6-6--0-3-0-3-0-3-0-3-0-3--|
   . . . . . . . . . . . . . . . .


|--------------------------------------------------------|
|--------------------------------------------------------|
|--------------------------------------------------------|
|--------------------------------------------------------|
|--------------------------------------------------------|
|--6-6-6-6-6-6-6-6-6-6-6-6-6-6-6-6--0-3-0-3-0-3-0-3-0-3--|
   . . . . . . . . . . . . . . . .


|--------------------------------------------------------|
|--------------------------------------------------------|
|--------------------------------------------------------|
|--------------------------------------------------------|
|--------------------------------------------------------|
|--6-6-6-6-6-6-6-6-6-6-6-6-6-6-6-6--0-3-0-8-0-3-0-8-0-3--|
   . . . . . . . . . . . . . . . .


|-------------------------------------------------------|
|-------------------------------------------------------|
|-------------------------------------------------------|
|-----------------------------------6-8-6-8-6-8-6-8-8\--|
|-----------------------------------6-8-6-8-6-8-6-8-8\--|
|--6-6-6-6-6-6-6-6-6-6-6-6-6-6-6-6--6-8-6-8-6-8-6-8-8\--|
   . . . . . . . . . . . . . . . .


Chorus 2: Both guitars 2:05
|--------------------------------|----------------------------------|
|--------------------------------|----------------------------------|
|--------------------------------|-----------------5-5-5-5-8-8-8-8--|
|--------------------------------|-----------------5-5-5-5-8-8-8-8--|
|--------------------------------|-----------------3-3-3-3-6-6-6-6--|
|--0-13\-0-1-0-1--0-13\-0-6-5-6--|--0-13\-0-1-0-1-------------------|


|--------------------------------|----------------------------------|
|--------------------------------|----------------------------------|
|--------------------------------|-----------------5-5-5-5----------|
|--------------------------------|-----------------5-5-5-5-1-1-1-1--|
|--------------------------------|-----------------3-3-3-3-1-1-1-1--|
|--0-13\-0-1-0-1--0-13\-0-6-5-6--|--0-13\-0-1-0-1----------1-1-1-1--|
                                                           . . . .

Post-chorus: Guitar 1 2:19
|--------------------------------------------------------|
|--------------------------------------------------------|
|--7--------5--7--------------7--------5--7--------------|
|--7--6--3--5--7--6--1-1-1-1--7--6--3--5--7--6--1--1--1--|
|--5--6--3--3--5--6--1-1-1-1--5--6--3--3--5--6--1--1--1--|
|-----6--3--------6--1-1-1-1-----6--3--------6--1--1--1--|
                     . . . .                    .  .  .


|--------------------------------------------------------|
|--------------------------------------------------------|
|--7--------5--7--------------7--------5--7--------------|
|--7--6--3--5--7--6--1-1-1-1--7--6--3--5--7--6--1--1--1--|
|--5--6--3--3--5--6--1-1-1-1--5--6--3--3--5--6--1--1--1--|
|-----6--3--------6--1-1-1-1-----6--3--------6--1--1--1--|
                     . . . .

Guitar 2: 2:19
|----------------------------------------------------------|
|--15-15-15-15-15-15-15-15-15--15-15-15-15-15-15-15-15-15--|
|--18/19-19-19-20-19-19-18-17--18/19-19-19-20-19-19-19-18--|
|----------------------------------------------------------|
|----------------------------------------------------------|
|----------------------------------------------------------|

|----------------------------------------------------------|
|--15-15-15-15-15-15-15-15-15--15-15-15-15-15-15-15-15-15--|
|--18/19-19-19-20-19-19-18-17--18/19-19-19-20-19-19-19-19--|
|----------------------------------------------------------|
|----------------------------------------------------------|
|----------------------------------------------------------|

Bridge: Guitar 1 - silent (2:33-2:44)

Guitar 2: 2:33
|-----------------------------------------------|
|-----------------------------------------------|
|-----------------------------------------------|
|-----------------------------------------------|
|---------------------------------5-6-5--3-5-3--|
|--0--0--0--0--0--0--5-6-5--3-5-3---------------|


|-----------------------------------------------|
|-----------------------------------------------|
|-----------------------------------------------|
|---------------------------------5-6-5--3-5-3--|
|--------------------5-6-5--3-5-3---------------|
|--0--0--0--0--0--0-----------------------------|


|-----------------------------------------------|
|-----------------------------------------------|
|---------------------------------7-8-7--5-7-5--|
|--------------------5-6-5--3-5-3---------------|
|-----------------------------------------------|
|--0--0--0--0--0--0-----------------------------|


|--------------------------------------------|
|--------------------------------------------|
|--------------------------13\12\10-12\10\8--|
|---------------------------x--x--x--x--x-x--|
|--------------------------11\10\-8-10\-8\6--|
|--0---0---0---0-0-0-0-0-0-------------------|
               . . . . . .

Both guitars: 2:45
|-----------------------------------------------|
|-----------------------------------------------|
|-----------------------------------------------|
|-----------------------------------------------|
|---------------------------------5-6-5--3-5-3--|
|--0--0--0--0--0--0--5-6-5--3-5-3---------------|


|-----------------------------------------------|
|-----------------------------------------------|
|-----------------------------------------------|
|---------------------------------5-6-5--3-5-3--|
|--------------------5-6-5--3-5-3---------------|
|--0--0--0--0--0--0-----------------------------|


|-----------------------------------------------|
|-----------------------------------------------|
|---------------------------------7-8-7--5-7-5--|
|--------------------5-6-5--3-5-3---------------|
|-----------------------------------------------|
|--0--0--0--0--0--0-----------------------------|


|---------------------------------------------|
|---------------------------------------------|
|---------------------------------------------|
|---------------------------13\12\10-12\10\8--|
|---------------------------11\10\-8-10\-8\6--|
|--0---0---0---0-0-0--0-0-0-------------------|
               . . .  . . .

Brigde 2: Guitar 1 (With lyrics) 2:56
|----------------------------------------------------------|
|----------------------------------------------------------|
|----------------------------------------------------------|
|----------------------------------------------------------|
|----------------------------------------------------------|
|--0-0-0--0-0-0--0-0-0--0-0-0--0-0-0--0-0-0--5-6-5--3-5-3--|
   . . .  . . .  . . .  . . .  . . .  . . .


|----------------------------------------------------------|
|----------------------------------------------------------|
|----------------------------------------------------------|
|----------------------------------------------------------|
|--------------------------------------------5-6-5--3-5-3--|
|--0-0-0--0-0-0--0-0-0--0-0-0--0-0-0--0-0-0----------------|
   . . .  . . .  . . .  . . .  . . .  . . .


|----------------------------------------------------------|
|----------------------------------------------------------|
|----------------------------------------------------------|
|--------------------------------------------5-6-5--3-5-3--|
|----------------------------------------------------------|
|--0-0-0--0-0-0--0-0-0--0-0-0--0-0-0--0-0-0----------------|
   . . .  . . .  . . .  . . .  . . .  . . .


|--------------------------------------------------------------|
|--------------------------------------------------------------|
|--------------------------------------------------------------|
|--------------------------------------------13\12\10-12\10\8--|
|--------------------------------------------11\10\-8-10\-8\6--|
|--0-0-0--0-0-0--0-0-0--0-0-0--0-0-0--0-0-0--------------------|
   . . .  . . .  . . .  . . .  . . .  . . .

Guitar 2: 2:56
|----------------------------------------------------------|
|----------------------------------------------------------|
|----------------------------------------------------------|
|----------------------------------------------------------|
|----------------------------------------------------------|
|--0-0-0--0-0-0--0-0-0--0-0-0--0-0-0--0-0-0--5-6-5--3-5-3--|
   . . .  . . .  . . .  . . .  . . .  . . .


|----------------------------------------------------------|
|----------------------------------------------------------|
|----------------------------------------------------------|
|--------------------------------------------5-6-5--3-5-3--|
|----------------------------------------------------------|
|--0-0-0--0-0-0--0-0-0--0-0-0--0-0-0--0-0-0----------------|
   . . .  . . .  . . .  . . .  . . .  . . .


|----------------------------------------------------------|
|----------------------------------------------------------|
|--------------------------------------------7-8-7--5-7-5--|
|----------------------------------------------------------|
|----------------------------------------------------------|
|--0-0-0--0-0-0--0-0-0--0-0-0--0-0-0--0-0-0----------------|
   . . .  . . .  . . .  . . .  . . .  . . .


|--------------------------------------------------------------|
|--------------------------------------------------------------|
|--------------------------------------------------------------|
|--------------------------------------------13\12\10-12\10\8--|
|--------------------------------------------11\10\-8-10\-8\6--|
|--0-0-0--0-0-0--0-0-0--0-0-0--0-0-0--0-0-0--------------------|
   . . .  . . .  . . .  . . .  . . .  . . .

Both guitars: 3:08
|---------------------------------------------------------|
|---------------------------------------------------------|
|---------------------------------------------------------|
|---------------------------------------------------------|
|-------------------------------------------5-6-5--3-5-3--|
|--0-0-0--0-0-0--0-0-0--0-0-0--5-6-5--3-5-3---------------|
   . . .  . . .  . . .  . . .


|---------------------------------------------------------|
|---------------------------------------------------------|
|---------------------------------------------------------|
|-------------------------------------------5-6-5--3-5-3--|
|------------------------------5-6-5--3-5-3---------------|
|--0-0-0--0-0-0--0-0-0--0-0-0-----------------------------|
   . . .  . . .  . . .  . . .


|---------------------------------------------------------|
|---------------------------------------------------------|
|-------------------------------------------7-8-7--5-7-5--|
|------------------------------5-6-5--3-5-3---------------|
|---------------------------------------------------------|
|--0-0-0--0-0-0--0-0-0--0-0-0-----------------------------|
   . . .  . . .  . . .  . . .


|------------------------------------------------------------------|
|------------------------------------------------------------------|
|------------------------------------------------------------------|
|------------------------------13\12\10-12\10\8--13\12\10-12\10\8--|
|------------------------------11\10\-8-10\-8\6--11\10\-8-10\-8\6--|
|--0-0-0--0-0-0--0-0-0--0-0-0--------------------------------------|
   . . .  . . .  . . .  . . .

3:21
|-------------------------------------------------------------------|
|-------------------------------------------------------------------|
|-------------------------------------------------------------------|
|----------------------------------------------------------------2--|
|--11-11-10-10-8-8-10-10-8-8-6-6--11-11-10-10-8-8-10-10-8-8-6-6--2--|
|----------------------------------------------------------------2--|
    .  .  .  . . .  .  . . . . .   .  .  .  . . .  .  . . . . .

Solo: Guitar 1 - Sorry, no solo...:((

Solo: Guitar 2: 3:26
|-------------------------------------------------------------------|
|-------------------------------------------------------------------|
|-------------------------------------------------------------------|
|--2--2-2--2--2-2-7--7-7--10--10-10--2--2-2--2--2-2-7--7-7--5--5-5--|
|--2--2-2--2--2-2-5--5-5---8---8--8--2--2-2--2--2-2-5--5-5--3--3-3--|
|--2--2-2--2--2-2--------------------2--2-2--2--2-2-----------------|


|-------------------------------------------------------------------|
|-------------------------------------------------------------------|
|-------------------------------------------------------------------|
|--2--2-2--2--2-2-7--7-7--10--10-10--2--2-2--2--2-2-6--8-8--6--8-8--|
|--2--2-2--2--2-2-5--5-5---8---8--8--2--2-2--2--2-2-6--8-8--6--8-8--|
|--2--2-2--2--2-2--------------------2--2-2--2--2-2-6--8-8--6--8-8--|


|-------------------------------------------------------------------|
|-------------------------------------------------------------------|
|-------------------------------------------------------------------|
|--2--2-2--2--2-2-7--7-7--10--10-10--2--2-2--2--2-2-7--7-7--5--5-5--|
|--2--2-2--2--2-2-5--5-5---8---8--8--2--2-2--2--2-2-5--5-5--3--3-3--|
|--2--2-2--2--2-2--------------------2--2-2--2--2-2-----------------|


|-------------------------------------------------------------------|
|-------------------------------------------------------------------|
|-------------------------------------------------------------------|
|--2--2-2--2--2-2-7--7-7--10--10-10--2--2-2--2--2-2-6--8-8--6--8-8--|
|--2--2-2--2--2-2-5--5-5---8---8--8--2--2-2--2--2-2-6--8-8--6--8-8--|
|--2--2-2--2--2-2--------------------2--2-2--2--2-2-6--8-8--6--8-8--|

Then Guitar 2 takes over on the solo, while Guitar 1 does the rhythm: 3:49
|-------------------------------------------------------------------|
|-------------------------------------------------------------------|
|-------------------------------------------------------------------|
|--4--4-4--4--4-4-9--9-9--12--12-12--4--4-4--4--4-4-9--9-9--7--7-7--|
|--4--4-4--4--4-4-7--7-7--10--10-10--4--4-4--4--4-4-7--7-7--5--5-5--|
|--4--4-4--4--4-4--------------------4--4-4--4--4-4-----------------|

|-----------------------------------------------------------------------------------|
|-----------------------------------------------------------------------------------|
|-----------------------------------------------------------------------------------|
|--4--4-4--4--4-4-9--9-9--12--12-12--4--4-4--4--4-4-3--5-5--3--5-5--3--5-5--3--5-5--|
|--4--4-4--4--4-4-7--7-7--10--10-10--4--4-4--4--4-4-1--3-3--1--3-3--1--3-3--1--3-3--|
|--4--4-4--4--4-4--------------------4--4-4--4--4-4---------------------------------|

4:14
|------------------------------|
|------------------------------|
|------------------------------|
|--6\5-5--6\5-5--6\5-5--6\5-5--|
|--4\3-3--4\3-3--4\3-3--4\3-3--|
|------------------------------|

Outro: Guitar 1: 4:17
|----------------------------------------------------------|
|----------------------------------------------------------|
|----------------------------------------------------------|
|----------------------------------------------------------|
|----------------------------------------------------------|
|--0-0-0-0-0-0---------3-5-3--0-0-0-0-0-0-0---------3-5-3--|
   . . . . . .                . . . . . . .


|----------------------------------------------------------|
|----------------------------------------------------------|
|----------------------------------------------------------|
|--------------------------------------------6-5-3--5-3-1--|
|--------------------------------------------6-5-3--5-3-1--|
|--0-0-0-0-0-0---------3-5-3--0-0-0-0-0-0-0--6-5-3--5-3-1--|
   . . . . . .                . . . . . . .

Guitar 2: 4:17

|----------------------------------------------------------|
|----------------------------------------------------------|
|----------------------------------------------------------|
|----------------------------------------------------------|
|----------------------------------------------------------|
|--0-0-0-0-0-0--5-6-5---------0-0-0-0-0-0-0--5-6-5---------|
   . . . . . .                . . . . . . .


|----------------------------------------------------------|
|----------------------------------------------------------|
|----------------------------------------------------------|
|--------------------------------------------6-5-3--5-3-1--|
|--------------------------------------------6-5-3--5-3-1--|
|--0-0-0-0-0-0--5-6-5---------0-0-0-0-0-0-0--6-5-3--5-3-1--|
   . . . . . .                . . . . . . .

Both guitars: 4:40
|-------------------------------------------------------|
|-------------------------------------------------------|
|-------------------------------------------------------|3 times
|-------------------------------------------------------|
|-------------------------------------------------------|
|--0-2-2-2-2-2--0-2-2-2-2-2--0-2-2-2-2-2--5-6-5--3-5-3--|
   . . . . . .  . . . . . .  . . . . . .


|-------------------------------------------|
|-------------------------------------------|
|-------------------------------------------|
|----------------------------5-7-8--7-8-10--|
|----------------------------5-7-8--7-8-10--|
|--0-2-2-2-2-2--0-2-2-2-2-2--5-7-8--7-8-10--|
   . . . . . .  . . . . . .


4:52
|-------------------------------------------------------|
|-------------------------------------------------------|
|-------------------------------------------------------|3 times
|-------------------------------------------------------|
|-------------------------------------------------------|
|--0-2-2-2-2-2--0-2-2-2-2-2--0-2-2-2-2-2--5-6-5--3-5-3--|
       . . . .      . . . .      . . . .


|----------------------------------------------------------|
|----------------------------------------------------------|
|----------------------------------------------------------|
|----------------------------5-7-8--7-8-10--5-7-8--7-8-10--|
|----------------------------5-7-8--7-8-10--5-7-8--7-8-10--|
|--0-2-2-2-2-2--0-2-2-2-2-2--5-7-8--7-8-10--5-7-8--7-8-10--|
       . . . .      . . . .

End: 5:06
|----------------------------------------------------------|
|----------------------------------------------------------|
|----------------------------------------------------------|
|----------------------------------------------------------|
|----------------------------------------------------------|
|--5-5-7-7-8-8--7-7-8-8-10-10--5-5-7-7-8-8--7-7-8-8-10-10--|
   . . . . . .   . . . . . .   . . . . . .   . . . . . .

5:08
|-----
|-----
|-----
|--2--
|--2--
|--2--


MACHINE f**kIN' HEAD!!!

This Song Kicks Soooo Much Ass...hope its ok... if someone could help with the solo, itd 
much appreciated...

================================================================================
            
Hard to play? Try these video lessons and learn fast. | Correct




comments powered by Disqus
↑ Back to top | Tablatures and chords are parodies/interpretations of the original songs. You may use it for private study, scholarship, research or language learning purposes only