» » »

Burning Red Tabs (ver.2)

Artists:  A B C D E F G H I J K L M N O P Q R S T U V W X Y Z # 

Burning Red Tabs (ver.2)

Machine Head
Rating:
0/5 (0 votes)

Tabs too difficult? Try these video lessons and learn fast.
                "(1)




Intro/verse

E-----------------------------------------------------------------------|
B---------8----------------8----------------5----------------5----------|
G-----------------------------------------------------------------------|
D------9----------------7----------------5----------------4-------------|
A---7----------------5----------------3----------------2----------------|
E-----------------------------------------------------------------------|
(play with delay)

Chores/outro
E-----------------------------------|
B-----------------------------------|
G-----------------------------------|
D---11--------9-------7------6------|
A---11--------9-------7------6------|
E---9---------7-------5------4------|
(heavely distorted)

Guitar 2 in the chores and outro plays a Consent sound on the guitar

E------9-----------------------|
B------------------------------|
G------6-----------------------|
D------------------------------|
A------------------------------|
E------------------------------|
(play with alot of delay and a bit of distorsion)

Outro (guitar 2)
E-----<7>------|
B-----<7>------|
G-----<7>------|
D--------------|
A--------------|
E--------------|
(if you have a Balanced tremolo bar pull the harmonics up and with loads of delay it should sound right)
John
"            
Tabs too difficult? Try these video lessons and learn fast.


comments powered by Disqus
↑ Back to top | Tablatures and chords are parodies/interpretations of the original songs. You may use it for private study, scholarship, research or language learning purposes only