» » »

Machine Head, Blood,Sweat,Tears Bass tabs (ver.5)

Artists:  A B C D E F G H I J K L M N O P Q R S T U V W X Y Z # 

Blood,Sweat,Tears Bass tabs (ver.5)

Machine Head Tabs
 Rating:
4/5 (4 votes)
Blood,Sweat,Tears lessons Tabs too difficult? Try these video lessons and learn fast
                (2)
standard tuning

intro
G:----------------------------------------||
D:----------------------------------------||
A:---/5-6-0\------------------------------||
E:----------------------------------------||x1

Chorus
G:----------------------------------------||
D:----------------------------------------||
A:---222----333---222---333-----6---------||
E:----------------------------------------||x4

Verse
G:----------------------------------||
D:----------------------------------||
A:----------------------------------||
E:---0-2-0----1-0-------------------||x4

Change
G:--------------------------------------------||
D:--------------------------------------------||
A:---2--3-2-0--2---3-2-0-2---66666------------||
E:--------------------------------------------||x4

Bridge
G:--------------------------------------------||
D:--------------------------------------------||
A:---0-0-0-0-0--------------------------------||
E:----------------1-1-1-1-1-1-----------------||x1

Change
G:--------------------------------------------||
D:--------------------------------------------||
A:---2--3-2-0--2---3-2-0-2---66666------------||
E:--------------------------------------------||x2

Bridge
G:--------------------------------------------||
D:--------------------------------------------||
A:---0-0-0-0-0--------------------------------||
E:----------------1-1-1-1-1-1-----------------||x1

Chorus
G:----------------------------------------||
D:----------------------------------------||
A:---222----333---222---333-----6---------||
E:----------------------------------------||x4

Verse
G:----------------------------------||
D:----------------------------------||
A:----------------------------------||
E:---0-2-0----1-0-------------------||x4

change
G:--------------------------------------------||
D:--------------------------------------------||
A:---2--3-2-0--2---3-2-0-2---66666------------||
E:--------------------------------------------||x4

Bridge
G:--------------------------------------------||
D:--------------------------------------------||
A:---0-0-0-0-0--------------------------------||
E:----------------1-1-1-1-1-1-----------------||x1

Chorus
G:----------------------------------------||
D:----------------------------------------||
A:---222----333---222---333-----6---------||
E:----------------------------------------||x4

Ending
G:------------------------------------||
D:------------------------------------||
A:---2--3-2-0--2---3-2-0-2------------||
E:------------------------------------||X4

Variation 1
G:--------------------------------------------||
D:--------------------------------------------||
A:---2--3-2-0--2---3-2-0-2----6b--------------||
E:--------------------------------------------||x8



Bridge
G:--------------------------------------------||
D:--------------------------------------------||
A:---0-0-0-0-0--------------------------------||
E:----------------1-1-1-1-1-1-----------------||x4

Chorus
G:----------------------------------------||
D:----------------------------------------||
A:---222----333---222---333-----6---------||
E:----------------------------------------||x4

Ending
G:------------------------------------||
D:------------------------------------||
A:---2--3-2-0--2---3-2-0-2------------||
E:------------------------------------||X4




this is a cool song a bit too easy if your a learner try this
            
Submit corrections

comments powered by Disqus
↑ Back to top | Machine Head Bass for Blood,Sweat,Tears. Lyrics for acoustic guitar and electric guitar. Tablatures and chords are parodies/interpretations of the original songs. You may use it for private study, scholarship, research or language learning purposes only