» » »

Machine Head, Blood,Sweat,Tears Tabs (ver.3)

Artists:  A B C D E F G H I J K L M N O P Q R S T U V W X Y Z # 

Blood,Sweat,Tears Tabs (ver.3)

Machine Head Tabs
 Rating:
4/5 (4 votes)
Blood,Sweat,Tears lessons Tabs too difficult? Try these video lessons and learn fast
                /=Slide up
\=Slide down
^=Bend up

|-------------------------------------------------||                     |-------------------------------------------||
|-------------------------------------------------||                     |-------------------------------------------||
|-------------------------------------------------||Alternate riffs      |-------------------------------------------||
|-0-0-0---0-3-1---0-0-0---0-3-1---------/4--||                           |-0-0-0---0-3-1---0-0-0---0-3-1---------/6--||
|-0-0-0---0-3-1---0-0-0---0-3-1---------/4--||                           |-0-0-0---0-3-1---0-0-0---0-3-1---------/6--||
|-0-0-0---0-3-1---0-0-0---0-3-1---------/4--||                           |-0-0-0---0-3-1---0-0-0---0-3-1---------/6--||


|----------------------------|| |----------------------------||
|----------------------------|| |----------------------------||
|----------------------------|| |----------------------------||
|-6-6---6-6---6-6---6-6------|| |----------------------------||
|-6-6---6-6---6-6---6-6------|| |-----6-6-6-6-6-6-6-6--------||
|-6-6---6-6---6-6---6-6------|| |----------------------------||


|-----------------------------------------------------||
|-----------------------------------------------------||
|-----------------------------------------------------||
|---0-0-0-6-0---0-0-6-0-------------------------------||
|---0-0-0-6-0---0-0-6-0----6-6-6-6-6-6-6-6------------||
|---0-0-0-6-0---0-0-6-0-------------------------------||

Bridge   *=Let note ring
|-------------------------|| |--------------------------------------||
|-------------------------|| |--------------------------------------||
|---4*--------------------|| |--------------------------------------||Play this after playing the bridge on the 3rd time
|---4*------------5*------|| |---5--------------7-------------9-----||
|---2*------------5*------|| |-----6--------------8------------10---||
|-----------------5*------|| |--------------------------------------||


|--------------------------------------||
|--------------------------------------||
|--------------------------------------||
|---0-0-0-6-0---0-0-6-0-----6^---------||
|---0-0-0-6-0---0-0-6-0----------------||
|---0-0-0-6-0---0-0-6-0----------------||

Solo
|--------------------------------------------------------||
|----------------------------9----------8----------------||
|--9-10-9-10-9-10-9-10-9-10----10-9-10----10-9-10--------||Play 2 times
|--------------------------------------------------------||
|--------------------------------------------------------||
|--------------------------------------------------------||


|------------------------------------------------------||   |-11-9--------------------------------------------------------------||
|---12^-12^-11^--------9^--9---------------------------||   |-------12-11-12-11-9-11-9------------------------------------------||
|-----------------------------------11-10-11-10-8------||   |--------------------------------10-11-10-10-11-10------------------||
|------------------------------------------------------||   |------------------------------------------------------------12-14--||
|------------------------------------------------------||   |-------------------------------------------------------------------||
|------------------------------------------------------||   |-------------------------------------------------------------------||


|--------------------------------------------------------------------------------------------||
|--------------------------------------------------------------------------------------------||
|--------------------------------------------------------------------------------------------||
|---14--------12--14--10---------9------7--9^-------5^-5-5\3-----5^-5-5\3------0--||
|--------------------------------------------------------------------------------------------||
|--------------------------------------------------------------------------------------------||


|------------------------------------------------------||                         
|------------------------------------------------------||                          
|------------------------------------------------------||
|-0-0-0---0-3-1---0-0-0---0-3-1------------------------||                           
|-0-0-0---0-3-1---0-0-0---0-3-1---6-6-6-6-6-6-6-6------||                          
|-0-0-0---0-3-1---0-0-0---0-3-1------------------------||                           |


|-----------------------------------------------------||
|-----------------------------------------------------||
|-----------------------------------------------------||
|---0-0-0-6-0---0-0-6-0-------------------------------||
|---0-0-0-6-0---0-0-6-0----6-6-6-6-6-6-6-6------------||
|---0-0-0-6-0---0-0-6-0-------------------------------||
            
Submit corrections

comments powered by Disqus
↑ Back to top | Machine Head Tabs for Blood,Sweat,Tears. Lyrics for acoustic guitar and electric guitar. Tablatures and chords are parodies/interpretations of the original songs. You may use it for private study, scholarship, research or language learning purposes only