» » »

Supercharger Bass tabs (ver.1)

Artists:  A B C D E F G H I J K L M N O P Q R S T U V W X Y Z # 

Supercharger Bass tabs (ver.1)

Machine Head
Rating:
0/5 (0 votes)
Tabs too difficult? Try these video lessons and learn fast.
                Machine Head - Supercharger

key
x4 = play riff 4 times
0:26 = time when riff enters on the track

tuning : D,A,D,G just drop the E to a D

Intro:

| 0:26  x4 |   0:32    x4     |
|----------|------------------|  
|----------|------------------|
|----------|------------------|
|-13-13-13-|-13-13-13-15-12---|

main riff: 

|"CHAAAAAAAARGE!!!"  0:36    x4   |
|---------------------------------|
|---------------------------------|
|---------------------------------|
|-0-0-0-0-0-0-0-0-0-0-0-0-0-1-3-3-|

Verse: 


Verse:
|0:45 x4| 0:50 x4   |
|-------|-----------|
|-------|-----------|
|-------|-----------|
|-1-1-1-|-1-1-1-3-0-|

main riff x4 0:55

chorus 1:03

Chorus:
| 1:03         x4   |
|-------------------| 
|-------------------|  
|-------------------|  
|-3--3-0-0-2--2-0-0-| 
                      

 verse  1:15  x4

 main riff  1:24  x4
 
chorus 1:32 x4

| Riff 2   1:42  x4 |
|-------------------| (its the same as the chorus just without the 
|-------------------| open notes)
|-------------------|
|-3--3-----2--2-----| 

chorus 1:51 x4

|Riff 3             |
|-------------------| ( the same as the chorus but this time with one
|-------------------| open note insted of two )
|-------------------|
|-3--3-0---2--2-0---|

2:10 - 2:37 no bass


chorus 2:37 x 4

Riff 2 2:47 x 4

chorus 2:56 x8
            
Tabs too difficult? Try these video lessons and learn fast.


comments powered by Disqus
↑ Back to top | Tablatures and chords are parodies/interpretations of the original songs. You may use it for private study, scholarship, research or language learning purposes only