» » »

Machine Head, Silver Tabs (ver.2)

Artists:  A B C D E F G H I J K L M N O P Q R S T U V W X Y Z # 

Silver Tabs (ver.2)

Machine Head Tabs
 Rating:
4/5 (4 votes)
Silver lessons Tabs too difficult? Try these video lessons and learn fast
1
                Machine Head – Silver


Tuning from low to high: B, F#, B, E, G#, C#


Riff 1 (Verse)

  Guitar 1
|----------------------------|
|--10--11--10----8--10--8----|
|----------------------------|
|----------------------------|
|----------------------------|
|----------------------------|


Riff 1.5
|------------------------------|
|--10--11--10----8--10--8------|
|--------------------------8---|
|------------------------------|
|------------------------------|
|------------------------------|


Riff 1 x 3

Riff 1.5


Riff 1 with Riff 2

   Guitar 1
|--------------------------|----------------------------|
|--10--11--10----8--10--8--|--10--11--10----8--10--8----|
|--------------------------|----------------------------|
|--------------------------|----------------------------|
|--------------------------|----------------------------|
|--------------------------|----------------------------|
|
|
|  Guitar 2
|--------------------------|----------------------------|
|--------------------------|----------------------------|
|--7-----------------------|----------------------------|
|--------------------------|----------------------------|
|--5-----------------------|----------------------------|
|--------------------------|----------------------------|


    Guitar 1
|--------------------------|----------------------------|
|--10--11--10----8--10--8--|--10--11--10----8--10--8----|
|--------------------------|----------------------------|
|--------------------------|----------------------------|
|--------------------------|----------------------------|
|--------------------------|----------------------------|
|
|
|  Guitar 2
|--------------------------|----------------------------|
|--------------------------|----------------------------|
|--7----------------9------|--9----------------10-------|
|--------------------------|----------------------------|
|--5----------------7------|--7----------------8--------|
|--------------------------|----------------------------|



Chorus x 2

|--------------------------------------|         |------------|
|--------------------------------------|         |------------|
|----------5--7--5--8-8----------------|         |-------5----|
|--0-----------------------------------|         |--1----5----|
|--0-------3--5--3--6-6----------------|         |--1----3----|
|--0-----------------------0--4--3--1--|   x  3  |--1---------|


|----------------|
|----------------|
|----------------|
|--0-------------|
|--0-------------|
|--0-------------|



Verse (Riff 1 with Riff 2)

   Guitar 1
|--------------------------|----------------------------|
|--10--11--10----8--10--8--|--10--11--10----8--10--8----|
|--------------------------|----------------------------|
|--------------------------|----------------------------|
|--------------------------|----------------------------|
|--------------------------|----------------------------|
|
|
|  Guitar 2
|--------------------------|----------------------------|
|--------------------------|----------------------------|
|--7-----------------------|----------------------------|
|--------------------------|----------------------------|
|--5-----------------------|----------------------------|
|--------------------------|----------------------------|



   Guitar 1
|--------------------------|----------------------------------|
|--10--11--10----8--10--8--|--10--11--10----8--10--8----------|
|--------------------------|-------------------------------8--|
|--------------------------|----------------------------------|
|--------------------------|----------------------------------|
|--------------------------|----------------------------------|
|
|
|  Guitar 2
|--------------------------|----------------------------------|
|--------------------------|----------------------------------|
|--7-----------------------|----------------------------------|
|--------------------------|----------------------------------|
|--5-----------------------|----------------------------------|
|--------------------------|----------------------------------|



Guitar 1
|--------------------------|----------------------------|
|--10--11--10----8--10--8--|--10--11--10----8--10--8----|
|--------------------------|----------------------------|
|--------------------------|----------------------------|
|--------------------------|----------------------------|
|--------------------------|----------------------------|
|
|  Guitar 2
|--------------------------|----------------------------|
|--------------------------|----------------------------|
|--7-----------------------|----------------------------|
|--------------------------|----------------------------|
|--5-----------------------|----------------------------|
|--------------------------|----------------------------|



Guitar 1
|--------------------------|----------------------------|
|--10--11--10----8--10--8--|--10--11--10----8--10--8----|
|--------------------------|----------------------------|
|--------------------------|----------------------------|
|--------------------------|----------------------------|
|--------------------------|----------------------------|
|
|
|  Guitar 2
|--------------------------|----------------------------|
|--------------------------|----------------------------|
|--7----------------9------|--9----------------10-------|
|--------------------------|----------------------------|
|--5----------------7------|--7----------------8--------|
|--------------------------|----------------------------|



Chorus x 2

|--------------------------------------|         |------------|
|--------------------------------------|         |------------|
|----------5--7--5--8-8----------------|         |-------5----|
|--0-----------------------------------|         |--1----5----|
|--0-------3--5--3--6-6----------------|         |--1----3----|
|--0-----------------------0--4--3--1--|   x  3  |--1---------|



Riff 3

  Guitar 1
|---------------------|---------------------|-----------------------|
|---------------------|---------------------|-----------------------|
|--9------------------|--9------------------|--9--------------------|
|---------------------|---------------------|-----------------------|
|--7------------------|--7------------------|--7--------------------|
|---------------------|---------------------|-----------------------|
|
|
|  Guitar 2
|---------------------|---------------------|-----------------------|
|---------------------|---------------------|-----------------------|
|--7----5-------------|--7----5-------------|--7----5-----10----12--|
|-------------6----3--|-------------6----3--|-----------------------|
|--5----3-------------|--5----3-------------|--5----3-----8-----10--|
|-------------6----3--|-------------6----3--|-----------------------|



Riff 4

  Guitar 1
|--------------------------|--------------------------|
|--10----------------------|--11----------------------|
|--------------------------|--------------------------|
|--7-----------------------|--8-----------------------|
|--------------------------|--------------------------|
|--------------------------|--------------------------|
|
|
|  Guitar 2
|--------------------------|--------------------------|
|--------------------------|--------------------------|
|--------------------------|--------------------------|
|--0--0--1--0--4--4--4--4--|--0--0--1--0--4--4--4--4--|
|--0--0--1--0--4--4--4--4--|--0--0--1--0--4--4--4--4--|
|--0--0--1--0--4--4--4--4--|--0--0--1--0--4--4--4--4--|



  Guitar 1
|--------------------------|--------------------------|
|--13----15-17-------------|--18----20----------------|
|--------------------------|--------------------------|
|--10----12-14-------------|--15----17----------------|
|--------------------------|--------------------------|
|--------------------------|--------------------------|
|
|
|  Guitar 2
|--------------------------|--------------------------|
|--------------------------|--------------------------|
|--------------------------|--------------------------|
|--0--0--1--0--4--4--4--4--|--0--0--1--0--4--4--4--4--|
|--0--0--1--0--4--4--4--4--|--0--0--1--0--4--4--4--4--|
|--0--0--1--0--4--4--4--4--|--0--0--1--0--4--4--4--4--|



Chorus 2

|----------------------------------------|         |------------|
|----------------------------------------|         |------------|
|----------7--9--7--10-10----------------|         |-------7----|
|--2-------------------------------------|         |--3----7----|
|--2-------5--7--5---8--8----------------|         |--3----5----|
|--2-------------------------2--6--5--3--|   x  3  |--3---------|


|----------------------------------------|         |------------|
|----------------------------------------|         |------------|
|----------7--9--7--10-10----------------|         |-------7----|
|--2-------------------------------------|         |--3----7----|
|--2-------5--7--5---8--8----------------|         |--3----5----|
|--2-------------------------2--6--5--3--|   x  3  |--3---------|



  Guitar 1
|----------------------------------------|----------------------------------------|
|----------------------------------------|----------------------------------------|
|--16------------------------14----------|--12------------------------10----------|
|----------------------------------------|----------------------------------------|
|--14------------------------12----------|--10------------------------8-----------|
|----------------------------------------|----------------------------------------|
|
|
|  Guitar 2
|----------------------------------------|----------------------------------------|
|----------------------------------------|----------------------------------------|
|----------7--9--7--10-10----------------|----------7--9--7--10-10----------------|
|--2-------------------------------------|--2-------------------------------------|
|--2-------5--7--5---8--8----------------|--2-------5--7--5---8--8----------------|
|--2-------------------------2--6--5--3--|--2-------------------------2--6--5--3--|



  Guitar 1
|----------------------------------------|
|----------------------------------------|
|--9-------------------------7-----------|
|----------------------------------------|
|--7-------------------------5-----------|
|----------------------------------------|
|
|
|  Guitar 2
|----------------------------------------|
|----------------------------------------|
|----------7--9--7--10-10----------------|
|--2-------------------------------------|
|--2-------5--7--5---8--8----------------|
|--2-------------------------2--6--5--3--|



  Guitar 1
|------------|
|------------|
|--9---------|
|------------|
|--7---------|
|------------|
|
|
|  Guitar 2
|------------|
|------------|
|-------7----|
|--3----7----|
|--3----5----|
|--3---------|   x   3 



  Guitar 1
|------------------------------------------------------------|
|--12--13--12----10--12--10----12--13--12----10--12--10------|
|--------------------------------------------------------10--|
|------------------------------------------------------------|
|------------------------------------------------------------|
|------------------------------------------------------------|
|
|
|  Guitar 2
|------------------------------------------------------------|
|------------------------------------------------------------|
|------------------------------------------------------------|
|--2---------------------------------------------------------|
|--2---------------------------------------------------------|
|--2---------------------------------------------------------|
            
Submit corrections

comments powered by Disqus
↑ Back to top | Machine Head Tabs for Silver. Lyrics for acoustic guitar and electric guitar. 1 Tablatures and chords are parodies/interpretations of the original songs. You may use it for private study, scholarship, research or language learning purposes only