>
 >
Seasons Wither 2

Seasons Wither 2 Guitar Tabs

Machine Head - Seasons Wither 2 chords, tabs, tablatures, lyrics

Guitar lessons | Add/correct | Request | Top 50 tabs Artists:  A B C D E F G H I J K L M N O P Q R S T U V W X Y Z 0-9

Seasons Wither 2 Guitar Tabs – Machine Head

CD, Sheet music, Poster

Do you like Seasons Wither 2? Share with your friends now
TabsTabs v2
----------------------------------------------------------------------------
                             Seasons Wither-Machine Head
----------------------------------------------------------------------------

Tuning: Low to High: B, F#, E, B, G#, C# (drop B)

e|-15~~~~~--15~~~~~-15~~~~--17~~~~--18~~~~--18~~~~-15h18h20-20b------------|
B|-------------------------------------------------------------------------|
G|--------------------------------------------------------------12tp-12tpb-|
D|-------------------------------------------------------------------------|
A|-------------------------------------------------------------------------|
E|-------------------------------------------------------------------------|

e|-------------------------------------------------------------------------|
B|--------------------------------------------17h18p17h18-15h18-17h18p17---|
G|-12b--------12b---------12b----12b---------------------------------------|
D|------15-12------15-12------15-----15-14~~~------------------------------|
A|-------------------------------------------------------------------------|
E|-------------------------------------------------------------------------|

e|-------------------------------------------------------------------------|
B|-18p17p15-17h18p17-18p15h18-17h18p17-18p17p15-18h20p17------18h20p17-----|
G|------------------------------------------------------17--17--------17---|
D|--------------------------------------------------------19------------19-|
A|-------------------------------------------------------------------------|
E|-------------------------------------------------------------------------|

e|-----17p13--17--17p13--17/18--15~~~~-15~~~~-15b--20-18-17-18-17----17----|
B|----------15---------15----------------------------------------18---18---|
G|-17----------------------------------------------------------------------|
D|-------------------------------------------------------------------------|
A|-------------------------------------------------------------------------|
E|-------------------------------------------------------------------------|

e|17-15--------------------------------------------------------------------|
B|-----16-----18-20-20b--18-20-20b--18-20-20b--18-20-20b--20p18p17-18p17p15|
G|-------17-17---------17--------17----------17----------------------------|
D|-------------------------------------------------------------------------|
A|-------------------------------------------------------------------------|
E|-------------------------------------------------------------------------|

e|-------------------------------------------------------------------------|
B|-15h17p15-14h15p14-------------------------15h16p15--15h16p15--15h16p15--|
G|------------------17h19p17-15h17p15-17b-15---------17--------17--------17|
D|-------------------------------------------------------------------------|
A|-------------------------------------------------------------------------|
E|-------------------------------------------------------------------------|

e|---------------------------15h18h20-22-----------------------------------|
B|-15h16p15--15h16p15---15h16-----------23--------22-23-22-20-----20-------|
G|---------17--------17-------------------24-22-24-----------20-22---------|
D|-------------------------------------------------------------------------|
A|-------------------------------------------------------------------------|
E|-------------------------------------------------------------------------|

e|-----------------------------------------------------------------15------|
B|--------------------------------------------------------13h16h18---16----|
G|-12h13p12--12h13p12--12h13p12--12h13p12--12h13p12--12h13-------------17--|
D|---------15--------15--------15--------15--------15----------------------|
A|-------------------------------------------------------------------------|
E|-------------------------------------------------------------------------|

e|-------------------------------------------------------------------------|
B|------15-16-15-13-----13-------------------------------------------------|
G|-15-17-----------13-15---------------------------------------------------|
D|-------------------------------------------------------------------------|
A|-------------------------------------------------------------------------|
E|-------------------------------------------------------------------------|

| /  slide up
| \  slide down
| h  hammer-on
| p  pull-off
| ~  vibrato
| +  harmonic
| x  Mute note
| tp Tremelo Picking
============================================================================





Comments


Popular Machine Head tabs & chords
Crashing Around Me Tabs
Crashing Around You 2 Tabs
Days Turn Blue To Gray (Intro) Tabs
From This Day Intro 1 Tabs
Imperium 2 Tabs
Locust Intro Tabs
Sick Of You Tabs
The Burning Red Tabs
Violate Tabs
Descend The Shades Of Night Ukulele


Song lyrics



↑ Back to top | Tablatures and chords are parodies/interpretations of the original songs. You may use it for private study, scholarship, research or language learning purposes only
© 2014 AZChords.com Contact us | Privacy policy | DMCA | Add/correct tabs | Request tabs | Top 50 tabs