» » »

Only The Names Tabs (ver.2)

Artists:  A B C D E F G H I J K L M N O P Q R S T U V W X Y Z # 

Only The Names Tabs (ver.2)

Machine Head
Rating:
0/5 (0 votes)

Hard to play? Try these video lessons and learn fast.
                Tuning: (Drop B) B F# B E G# C#

* - Harmonics

Intro/Verse

||------------------------|
||------------------------|
||-9-9-10-7---9-9-10-13---|
||------------------------|
||------------------------|
||------------------------|


Chorus/Main Riff

||--------------------*12---|
||-----------------*12------|
||--------------------------|
||-2-2-3-0--2-2-3-----------|
||-2-2-3-0--2-2-3-----------|
||-2-2-3-0--2-2-3-----------|


Fill (Before solo)

||----------------|
||----------------|
||-7~---3~--------|
||-----------0----|
||-----------0----|
||-----------0----|


Solo

Guitar 1
||------------------------|
||------------------------|
||-9-9-10-7---9-9-10-13---|
||------------------------|
||------------------------|
||------------------------|

If someone has any corrects please fill out comments etc. I'd love to add or change anything if its wrong. I want feedback!
            
Hard to play? Try these video lessons and learn fast. | Correct




comments powered by Disqus
↑ Back to top | Tablatures and chords are parodies/interpretations of the original songs. You may use it for private study, scholarship, research or language learning purposes only