>
 >
Old

Old Drum Tabs

Machine Head - Old chords, tabs, tablatures, lyrics

Guitar lessons | Add/correct | Request | Top 50 tabs Artists:  A B C D E F G H I J K L M N O P Q R S T U V W X Y Z 0-9

Old Drum Tabs – Machine Head

CD, Sheet music, Poster

Do you like Old? Share with your friends now
Bass TabsDrum TabsTabsTabs v2
Machine Head


INTRO
C |X---------------|----------------|----------------|----------------|
H |--x-x-x-x-x-x---|x-x-x-x-x-x-x---|x-x-x-x-x-x-x---|x-x-x-x-x-x-----|
t1|----------------|--------------rr|----------------|----------------|
t2|----------------|----------------|----------------|------------rr--|
t3|----------------|----------------|----------------|--------------rr|
S |----x--x-x--x-rr|----x--x-x--x---|----x--x-x--x-rr|xx--x--x-x------|
B |0-0-------00-0--|0-00------00-0--|0-00------00-0--|--00------00----|

C |X---------------|X---------------|----------------|X---------------|
H |--x-x-x-x-x-x-x-|--x-x-x-x-x-x---|--x-x-x-x-x-x-x-|--x-x-x---------|
t1|-------o--------|-------o--------|-------o--------|----------------|
t2|---------o------|----------------|o--------o------|----------------|
t3|--------------oo|----------------|--------------o-|--------o-o-o-o-|
S |----x-x-----x---|----x----x--x-rr|----x-------x-xx|----x-----------|
B |0-00------00-0--|0-00------00-0--|0-00------00-0--|0-0---0-0-0-0-0-|

C |X---------------|----------------|----------------|X---------------|
H |----x-x-x-x-x---|x-x-x-x-x-x-x---|x-x-x-x-x-x-x-x-|--x-x-x---------|
t1|-------o------rr|-------o------rr|-r-------o------|----------------|
t2|---------o------|---------o------|-------o--------|----------------|
t3|o-o-------------|----------------|----o-------o---|----------------|
S |----xx------x---|-x--x-------x---|----x-------x-xx|----x---xxxxxxxx|
B |0-0d------00-0--|0-00------00-0--|0-00------00-0--|0-0---0---------|

BRIDGE 1  0:27
   /======2x======
C |X-X---------X---|X-X---------X---|X-X-------------|
H |----X-ddXXX---X-|----X-ddXXX-----|----X-X---------|
t5|----------------|----------------|--------oooooooo|
S |----x-------x--x|----x-------x-xx|----x---xxxxxxxx|
B |0-0---0---00----|0-0---0---00----|0-0---0---------|

   /======3x======                  /======3x======
C |X-X---------X---|X-X-------------|X-X---------X---|X-X-------------|
H |----X-ddXXX---X-|----X-X---------|----X-ddXXX---X-|----X-X---------|
t3|----------------|--------oooo----|----------------|----------------|
t4|----------------|------------oooo|----------------|----------------|
t5|----------------|----------------|----------------|--------ooooooo-|
S |----x-------x--x|----x-----------|----x-------x--x|----x---xxxxxxx-|
B |0-0---0---00----|0-0---0---------|0-0---0---00----|0-0---0--------d|

VERSE  0:54
C |X---------------|X---------------|X---------------|X---------------|
H |--X-X-X-X-X-X-X-|--X-X-X-X-X-X-X-|--X-X-X-X-X-X-X-|--X-X-X-XXX-XXX-|
S |x---x---x---x---|x---x---x---x---|x---x---x---x---|x---x---xxx-xxx-|
B |-0-0-0-d-0-0-0-d|-0-0-0-0-00--00-|-0-d-0-0-----0--|-0-d---d---d---d|

C |X---------------|X---------------|X---------------|X---------------|
H |--X-X-X-X-X-X-X-|--X-X-X-X-X-X-X-|--X-X-X-X-X-X-X-|--X-X-X-X-X-----|
S |x---x---x---x---|x---x---x---x---|x---x---x---x---|x---x---x---t-x-|
B |-0-d-0-0-0-d-0-d|-0-0-0-0-00--00-|-0-d-0-0-0-d-0-0|-0-d-0-0-0------|

CHORUS  1:12
                    /=======2x=====
C |X---------------|----------------|----------------|
R |--x-x-x-x-x-x-x-|--x-x-x-x-x-x-x-|--x-x-x-x-x-----|
t5|----------------|o---------------|o---------------|
S |----x-------xx--|----x-------xx--|----x--x-x-xxxxx|
B |0-------00------|0-------00------|0---------------|

C |X-x-------------|----------------|X-x-------------|----------------|
H |----X-X-X-X-X-X-|X-X-X-X-X-X-X-X-|----X-X-X-X-X-X-|X-X-X-X-X-------|
S |----x-------x-xx|----x-------x-xx|----x-------x-x-|----x---x-------|
B |0-0--0-0-0-0-0--|0-0--0-0-0-d-d--|0-0--0-0-0-0-d--|0-0--0-0--------|

BRIDGE 2 1:32
   /======3x======                  /======3x======
C |X-X---------X---|X-X-------------|X-X---------X---|X-X-------------|
H |----X-ddXXX-----|----X-X---------|----X-ddXXX---X-|----X-X---------|
t3|----------------|--------rrrr----|----------------|----------------|
t4|----------------|------------rrrr|----------------|----------------|
S |----x-------x-xx|----x-----------|----x-------x--x|----x---xxxxxxx-|
B |0-0---0---00----|0-0---0---------|0-0---0---00----|0-0---0--------d|

VERSE 2  1:50
C |X---------------|X---------------|X---------------|X---------------|
H |--X-X-X-X-X-X-X-|--X-X-X-X-X-X-X-|--X-X-X-X-X-X-X-|--X-X-X-XXX-XXX-|
S |x---x---x---x---|x---x---x---x---|x---x---x---x---|x---x---xxx-xxx-|
B |-0-0-0-d-0-0-0-d|-0-0-0-d-00--00-|-0-0-0-0-0-d-0--|-0-d---d---d---d|

C |X---------------|X---------------|X---------------|X---------------|
H |--X-X-X-X-X-X-X-|--X-X-X-X-X-X-X-|--X-X-X-X-X-X-X-|--X-X-X-X-X-----|
S |x---x---x---x---|x---x---x---x---|x---x---x---x---|x---x---x---t-x-|
B |-0-d-0-0-0-d-0-d|-0-0-0-d-00--00-|-0-d-0-0-0-d-0-0|-0-d-0-0-0------|

CHORUS  2:09
                    /=======2x=====
C |X---------------|----------------|----------------|
R |--x-x-x-x-x-x-x-|--x-x-x-x-x-x-x-|--x-x-x-x-------|
t5|----------------|o---------------|o---------------|
S |----x-------xx--|----x-------xx--|----x--x-xxdxxxx|
B |0-------00------|0-------00------|0---------------|

C |X-x-------------|------------X-X-|X---------------|----------------|
H |----X-X-X-X-X-X-|X-X-X-X-X-X-----|----X-X-X-X-X-X-|X-X-X-X-X-------|
S |----x-------x-xx|----x-------x-xx|----x-------x-x-|----x---x-------|
B |0-0--0-0-0-d-d--|0-0--0-0-0-d-d--|0-0--0-0-0-0-d--|0-0--0-d--------|

PART 1  2:27
C |X---------------|----------------|X---------------|X-X---X---------|
H |--X-X-X-X-X-X-X-|X-X-X-X-X-X-X-X-|--X-X-X-X-X-----|----X---X-X-X-X-|
t4|----------------|----------------|----------------|-------------o--|
t5|----------------|----------------|----------------|--------------oo|
S |----x--x-x--x--x|----x--x-x--x-xx|----x--x-x--xxxx|----x----x--x---|
B |0-------0-0-----|--0-------00----|0---------0-----|0-0---0----0----|

HARMONICS  2:36
C |X---------------|----------X-----|X---------------|X-X---X---------|
H |----------X---X-|----------------|----------------|--------X-X-X-X-|
R |--x-x-x-x---x---|x-x-x-x-x---x-x-|--x-x-x-x-x-----|----------------|
t4|----------------|----------------|----------------|--------------oo|
S |----x-------x---|----x-----x---x-|----x-----x-xxxx|----F----x--x---|
B |0-0----0-0--00--|0-0----0-0--t---|0-0----0-0------|0-0---0----0-0--|

C |X---------X-----|----------X-----|X---------------|X-X---X---------|
H |--------------X-|----------------|----------------|--------X-X-X-X-|
R |--x-x-x-x---x---|x-x-x-x-x---x---|--x-x-x-x-x-----|----------------|
t4|----------------|----------------|----------------|----------------|
S |----x-------x---|----x-----x---tx|----x-----x-xxxx|----F----x--x---|
B |0-0----0-0--00--|0-0----0-0--tt--|0-0----0-0------|0-0---0----0----|

BUILD UP  2:54  (7/8)                 ______________ ______________
   /=====4x=====                    |      1       |       2      |
C |--------------|    |X-------------|--------------|--------------|
Hf|x-x-x-x-x-x-x-|    |--------------|--------------|--------------|
t4|o-----oo------|    |--------------|--------------|--------------|
t5|---------o----|    |OoooOooOoOooOo|OoooOooO-OooOo|OoooOoO-OoooO-|
S |x-------------|    |--------------|--------------|--------------|
B |--------------|    |0-------------|--------------|--------------|

   /=====3x=====
C |X-------------|X-------------|
t5|OdododoOdodoOd|OdododoOdodoO-|
S |--------------|--------------|
B |0-------------|0-------------|

   /=====4x===== /=====3x=====                     (4/4)
C |X-X-X-XX-X-XX-|X-X-X-XX-X-XX-|X-X-X-XX-X----|----------------|
S |x-x-x-xx-x-xx-|x-x-x-xx-x-xx-|x-x-x-xx-x----|----------------|
B |-d-d-d--d-d--d|dddddddddddddd|ddddddddd0----|----------------|

CHORUS  3:35
                    /=======2x=====
C |X---------------|----------------|----------------|
R |--x-x-x-x-x-x-x-|--x-x-x-x-x-x-x-|--x-x-x-x-------|
t2|----------------|----------------|-------------o--|
t3|----------------|----------------|--------------oo|
t5|----------------|o---------------|o---------------|
S |----x-------xx--|----x-------xx--|----x--x-xxdx---|
B |0-------00------|0-------00------|0---------------|

C |X-x-------------|X-x---------X-X-|X---------------|X---------------|
H |----X-X-X-X-X-X-|X-X-X-X-X-X-----|----X-X-X-X-X-X-|X-X-X-X-XXXXXXXX|
S |----x-------x-xx|----x-------x-xx|----x-------x-x-|----x---xxxxxxxx|
B |0-0--0-0-0-d-d--|0-0--0-0-0-d-d--|0-0--0-0-0-d-d--|0-0--0-0--------|

OUTRO  3:53           ________________ ________________
                     |        1       |        2       |
C |X-X---X-------- - |X-X---X---------|X-X---X---------|X-X-------------|
H |----X---X-X-X-X - |----X-----------|----X-----------|----------------|
t2|--------------- - |------------t---|----------------|----------------|
t3|--------------- - |--------------t-|----------------|----------------|
S |----x----x--x--x- |----x---t-t-----|----x---dddddddd|----------------|
B |0-0---0----0-00 00|0-0---0---------|0-0---0---------|0-0-------------|





Comments


Popular Machine Head tabs & chords
Blistering 1 Bass Tabs
All In Your Head 1 Tabs
Block Tabs
Bush Tabs
Crashing Around You 2 Tabs
Deafening Silence Tabs
Left Unfinished Tabs
Locust Intro Tabs
Machine Day Tabs
Supercharger 1 Tabs


Song lyrics



↑ Back to top | Tablatures and chords are parodies/interpretations of the original songs. You may use it for private study, scholarship, research or language learning purposes only
© 2014 AZChords.com Contact us | Privacy policy | DMCA | Add/correct tabs | Request tabs | Top 50 tabs