>
 >
Imperium 3

Imperium 3 Guitar Tabs

Machine Head - Imperium 3 chords, tabs, tablatures, lyrics

Guitar lessons | Add/correct | Request | Top 50 tabs Artists:  A B C D E F G H I J K L M N O P Q R S T U V W X Y Z 0-9

Imperium 3 Guitar Tabs – Machine Head

CD, Sheet music, Poster

Do you like Imperium 3? Share with your friends now
Bass TabsDrum TabsTabsTabs v2Tabs v3Tabs v4
Machine head - imperium

Tunning  C# G# E B F# B 

Intro-Clean/Chorus
       
       Guitar 1
    |------------------------------------|
    |------------------------------------|
    |------------------------------------|  
    |-4/5------7/5------4/5------7/5-----|
    |-5/7------9/7------5/7------9/7-----|
    |------------------------------------|2x
    |
    |   Guitar 2
    |------------------------------------|
    |--------------------------------*---|
    |----9-------9--------9------*-*-5---|  
    |-----9-------10-------8-----5-5-----|
    |--7---7---7----7---7---7------------|
    |------------------------------------|4x
	

	Guitar 2
    |-----------------------------------------|
    |------------------------------------*----|
    |--------------------------------*-*-5----| 
    |-02-------10-10-10-10--8-8-8-8--5-5------|
    |-02--------------------------------------|
    |-02--------------------------------------|2x
    |
    |   Guitar 1                 Add This to end
    |---------------------|  |------------------|
    |---------------------|  |-----------*------|
    |---------------------|  |-------*-*-5------|  
    |-0-2-----------------|  |-------5-5--------|
    |-0-2-----------------|  |------------------|
    |-0-2-----------------|2x|------------------|2x


	Guitar 1
    |-----------------------------------------------------------|
    |-----------------------------------------------------------|
    |-----------------------------------------------------------|  
    |-----------------------------------------------------------|
    |-----------------------------------------------------------|
    |-2-2-2-2---2-2-2-2---2-2-2-2---2-2-2---2-2-2-2-2--2-2-2----|4x
    |...................pm...................................
    |   Guitar 2
    |------------------------------1212121212121212121212121212-|
    |------------------------------x-x-x-x-x-x-x-x-x-x-x-x-x-x--|
    |-5-5-5-5-5-5-5-5-5-5-5-5-5-5--9-9-9-9-9-9-9-9-9-9-9-9-9-9--|  
    |-x-x-x-x-x-x-x-x-x-x-x-x-x-x-------------------------------|
    |-7-7-7-7-7-7-7-7-7-7-7-7-7-7-------------------------------|
    |-----------------------------------------------------------|on the last 2x of guitar 1
     
     
    *verse                                                          -- 
    |-------------------------------------------------------------|  |
    |-------------------------------------------------------------|  |
    |--p--------------------------------p-------------------------|  |     
    |-2-0----------p-p-----------------2-0----------p-p--------*--|  |    
    |-------------5-3-2-----------p-p--------------5-3-2-------3--|  |    
    |-----2-2-2-2-------2-2-2-2--5-2-0-----2-2-2-2-------2-2-2----|  |     
    |     .......       .......            .......       .....       |
                                                                     |
    |----------------------------------|                             |    
    |----------------------------------|                             |  
    |--p-------------------------------|                             |4x      
    |-2-0----------p-p-----------------|                             |
    |-------------5-3-2-----------p-p--|                             |    
    |-----2-2-2-2-------2-2-2-2--5-2-0-|                             |
    |     .......       .......                                      |
    |------------------------------------|                           |          
    |------------------------------------|                           |   
    |-------------------------7-7-4------|                           |              
    |-3-3-3-------6-6-6-3-3-3------------|                           |             
    |-------5-5-5------------------------|                           |           
    |------------------------------------|                           |      
     ..............pm..............                                 --
	
    |----------------------------------------------------|
    |----------------------------------------------------|
    |----------------------------------------------------|
    |--9/7-7-7--9/7-7-7--9/7-7--7/5-5-5--7/5-5-5--7/5-5--|
    |--7/5-5-5--7/5-5-5--7/5-5--5/3-3-3--5/3-3-3--5/3-3--|
    |----------------------------------------------------|1x
    
    Repeat verse 1x
    	
    |----------------------------------------------------|
    |----------------------------------------------------|
    |----------------------------------------------------|
    |--9/7-7-7--9/7-7-7--9/7-7--7/5-5-5--7/5-5-5--7/5-5--|
    |--7/5-5-5--7/5-5-5--7/5-5--5/3-3-3--5/3-3-3--5/3-3--|
    |----------------------------------------------------|1x
    
    
    |------------------------------------|
    |------------------------------------|
    |------------------------------------|  
    |-0-2---3-2---0-2--3-3-3-3-3-3-3-3---|
    |-0-2---3-2---0-2--3-3-3-3-3-3-3-3---|
    |-0-2---3-2---0-2--3-3-3-3-3-3-3-3---|
                       ......pm.......

    |------------------------------------|
    |-----*-------*-------*-------*------|
    |-----5-------5-------5-------5------|
    |------------------------------------|
    |-0-2---2-3-2---2-0-2---2-3-2--------|
    |-0-2---2-3-2---2-0-2---2-3-2--------|

    |------------------------------------|
    |------------------------------------|
    |------------------------------------|  
    |------------------------------------|
    |-2/8-8--5-5-7-7/3-------------------|
    |-2/8-8--5-5-7-7/3-------------------|2x    
      
                                      only play first time    
    |-----------------------------||---------------------------|
    |-----------------------------||---------------------------|
    |-----------------------------||---------------------------|  
    |-----------------------------||---------------------------|
    |-----------------------------||---------------------------|
    |-2-2-2-2---2-2-2-2---2-2-2-2-||2-2-2--2-2-2-2-2--2-2-2----|2x

  
   *verse 2x

    |----------------------------------------------------|
    |----------------------------------------------------|
    |----------------------------------------------------|
    |--9/7-7-7--9/7-7-7--9/7-7--7/5-5-5--7/5-5-5--7/5-5--|
    |--7/5-5-5--7/5-5-5--7/5-5--5/3-3-3--5/3-3-3--5/3-3--|
    |----------------------------------------------------|1x
    
   *verse 1x
    
    |----------------------------------------------------|
    |----------------------------------------------------|
    |----------------------------------------------------|
    |--9/7-7-7--9/7-7-7--9/7-7--7/5-5-5--7/5-5-5--7/5-5--|
    |--7/5-5-5--7/5-5-5--7/5-5--5/3-3-3--5/3-3-3--5/3-3--|
    |----------------------------------------------------|1x
    

 
    |------------------------------------|
    |------------------------------------|
    |------------------------------------|  
    |-0-2---3-2---0-2--3-3-3-3-3-3-3-3---|
    |-0-2---3-2---0-2--3-3-3-3-3-3-3-3---|
    |-0-2---3-2---0-2--3-3-3-3-3-3-3-3---|
                       .......pm......

    |------------------------------------|
    |-----*-------*-------*-------*------|
    |-----5-------5-------5-------5------|
    |------------------------------------|
    |-0-2---2-3-2---2-0-2---2-3-2--------|
    |-0-2---2-3-2---2-0-2---2-3-2--------|

    |------------------------------------|
    |------------------------------------|
    |------------------------------------|  
    |------------------------------------|
    |-2/8-8--5-5-7-7/3-------------------|
    |-2/8-8--5-5-7-7/3-------------------|2x
   
    |------------------------------------|
    |------------------------------------|
    |------------------------------------|  
    |-0----------------------------------|
    |-0----------------------------------|
    |-0----------------------------------|
    
    |------------------------------------|
    |------------------------------------|
    |------------------------------------|  
    |-0-1--0-1--0-1--6-3-4--1-4-3--------|
    |-0-1--0-1--0-1--6-3-4--1-4-3--------|
    |-0-1--0-1--0-1--6-3-4--1-4-3--------|2x
      
  

    |---------------------------------------------------------------------|
    |---------------------------------------------------------------------|
    |---------------------------------------------------------------------|  
    |------------------------------------------------------6-3-4--1-4-3---|
    |------------------------------------------------------6-3-4--1-4-3---|
    |-000-000-000-000-000-000-000-333-444-000-000-000-000--6-3-4--1-4-3---|2x
       ..........................pm........................

    |------------------------------------|
    |------------------------------------|
    |---8\---8\---8\---------------------|  
    |-0-x\-0-x\-0-x\-6-3-4--1-4-3--------|
    |-0-6\-0-6\-0-6\-6-3-4--1-4-3--------|
    |-0----0----0----6-3-4--1-4-3--------|
                       ...    ...
    |------------------------------------|
    |------------------------------------|
    |--10\--10\--10\---------------------|  
    |-0-x\-0-x\-0-x\-6-3-4--1-4-3--------|
    |-0-8\-0-8\-0-8\-6-3-4--1-4-3--------|
    |-0----0----0----6-3-4--1-4-3--------|
                       ...    ...             
    |------------------------------------|
    |------------------------------------|
    |------------------------------------|  
    |-2----------------------------------|
    |-2----------------------------------|
    |-2----------------------------------|

		Guitar 1			     
    |------------------------------------|  
    |------------------------------------|  
    |-9--9/7--7/5--5/4-------------------|  
    |------------------------------------|  
    |-7--7/5--5/3--3/2-------------------|  
    |------------------------------------|
    |
    |    Guitar 2			      
    |------------------------------------|  
    |------------------------------------|  
    |-9--9/11-11/12-12/14----------------|  
    |------------------------------------|  
    |-7--7/9--9/10--10/12----------------|  
    |------------------------------------|  
                                              
    
       Guiatar 2
    |------------------------------------|
    |------------------------------------|
    |------------------------------------|
    |-----2-----------5-4----------------|
    |-----------4---------4-5------------|
    |-2-2---2-2---2-2--------------------|2x
    | ...   ...   ...
    |------------------------------------|
    |------------------------------------|
    |------------------------------------|
    |-----5-----4-----4-2----------------|
    |-0-0---0-0---0-0--0-0-5-4-----------|
    |------------------------------------|
    | ...   ...   ...  . .
    |-----------------|
    |-----------------|
    |-2---------------| 
    |-2---------------|
    |-0---------------|
    |-----------------|
    |
    |------------------------------------|                           
    |------------------5-3---------------|                          
    |-----------------------5-4-5-4-2----|                          
    |-----5-----3---------------------5--|                         
    |-3-3---3-3---3-3--------------------|                           
    |------------------------------------|                                   
    | ...   ...   ...  
    |   Guitar1
    |-----------------|
    |-----------------|
    |-5---------------| 
    |-5---------------|
    |-3---------------|
    |-----------------|
    
       Guiatar 1&2
    |------------------------------------|                      
    |------------------------------------|                     
    |------------------------------------|                      
    |-----2-----------5-4----------------|                      
    |-----------4---------4-5------------|                        
    |-2-2---2-2---2-2--------------------|2x                      
    | ...   ...   ... 
    |------------------------------------|           \          
    |------------------------------------|            |         
    |------------------------------------|             3X                    
    |-----5-----4-----4-2----------------|            |         
    |-0-0---0-0---0-0--0-0-5-4-----------|           /              
    |------------------------------------|                     
    | ...  ...    ...  . .     1st time           2nd time  
    |-----------------||-------------------||-3-2---2---------||-3-2---2-------------------------|
    |-----------------||-5-3---------------||-----5---5-3-----||-----5---5-3---3-----------------|
    |-----------------||-----5-4-5-4-2-----||-------------5-4-||-------------5---5-4-2-4-2-------|
    |-----5-----3-----||---------------5---||-----------------||---------------------------5-4-2-|
    |-3-3---3-3---3-3-||-------------------||-----------------||---------------------------------|
    |-----------------||-------------------||-----------------||---------------------------------|
      ...   ...   ...

    |------------------------------------|
    |------------------------------------|
    |------------------------------------|  
    |-0-2-0-22222222---------------------|
    |-0-2-0-22222222---------------------|
    |-0-2-0-22222222---------------------|3X
    |
    |------------------------------------|
    |------------------------------------|
    |------------------------------------|  
    |-3-3-3------------------------------|
    |-1-1-1-1-1-1------------------------|
    |-------1-1-1------------------------|      

    |------------------------------------|
    |------------------------------------|
    |------------------------------------|  
    |------------------------------------|
    |-0-2--0-2-2-2-2-2-2-2-2-------------|
    |-0-2--0-2-2-2-2-2-2-2-2-------------|3x


	Guitar 2
    |-----------------------------------------|
    |------------------------------------*----|
    |--------------------------------*-*-5----| 
    |-0-2------10-10-10-10--8-8-8-8--5-5------|
    |-0-2-------------------------------------|
    |-0-2-------------------------------------|2x
    ||    Guitar 1
    |------------------------------------|
    |------------------------------------|
    |------------------------------------|  
    |-0-2--------------------------------|
    |-0-2--------------------------------|
    |-0-2--------------------------------|2x

BY Chanandlerama





Comments


Popular Machine Head tabs & chords
American High Bass Tabs
Davidian Bass Tabs
Violate Bass Tabs
American High Tabs
I Am Hell Sonata In C Tabs
Machinehead Tabs
Seasons Wither Intro 1 Tabs
Spine 2 Tabs
Ten Ton Hammer Tabs
Trephination Tabs


Song lyrics



↑ Back to top | Tablatures and chords are parodies/interpretations of the original songs. You may use it for private study, scholarship, research or language learning purposes only
© 2014 AZChords.com Contact us | Privacy policy | DMCA | Add/correct tabs | Request tabs | Top 50 tabs