>
 >
I Am Hell Sonata In C 1

I Am Hell Sonata In C 1 Guitar Tabs

Machine Head - I Am Hell Sonata In C 1 chords, tabs, tablatures, lyrics

Guitar lessons | Add/correct | Request | Top 50 tabs Artists:  A B C D E F G H I J K L M N O P Q R S T U V W X Y Z 0-9

I Am Hell Sonata In C 1 Guitar Tabs – Machine Head

CD, Sheet music, Poster

Do you like I Am Hell Sonata In C 1? Share with your friends now
Bass TabsTabsTabs v2
Band:   Machine Head
Tuning: C# Standard (C#, F#, B, E, G#, C#)

Machine Head don't play in C# standard precisely... They are tuned to
C# Standard but then tuned up 40 cents sharper


On a Korg tuner it would look something like this

Tuner:
50                            x  50#
|--|--|--|--|-[-C#-]-|--|--|--|--|

The 'x' is where you want to be tuned to
I hope that helps anyway... xD

Also comment, correct, and please, please rate!!!

On further note... Look forward to the other songs from Unto The Locust!
I plan to put them here as soon as I've figured them out

Acoustic Guitar 1: Robb Flynn
Acoustic Guitar 2: Phil Demmel
Guitar 1:          Robb Flynn
Guitar 2:          Phil Demmel
Guitar 3:          Harmony guitar

Tabbing Legend
Hammer on:          h
Pull off:           p
Slide up:           /
Slide down:         \
Natural Harmonic:   NH
Return Bend:        ^
Bend:               BU(?)
Pinch Harmonic:     PH
Tapped Note:        T
Whammy bar dive:    WBD
Slight bend:        sb

____________________________________________________________________________

Intro
Both guitars
|-----------------------------------------------------------------|
|-----------------------------------------------------------------|
|-----------------------------------------------------------------|
|-----------------------------------------------------------------|
|-2-2-2-2-2-------2-------2-2-2-2-2-------2-------2-2-2-2-2-------|
|-0-0-0-0-0-------0-------0-0-0-0-0-------0-------0-0-0-0-0-------|

|-----------------------------------------------------------------|
|-----------------------------------------------------------------|
|-----------------------------------------------------------------|
|-----------------------------------------------------------------|
|-2-2-2-2-2-------2-------2-2-2-2-2-------2-------2-2-2-2-2-------|
|-0-0-0-0-0-------0-------0-0-0-0-0-------0-------0-0-0-0-0-------|

|-----------------------------------------------------------------|
|-----------------------------------------------------------------|
|-----------------------------------------------------------------|
|-----------------------------------------------------------------|
|-2-2-2-2-2-------2-------2-2-2-2-2-------2-------2-2-2-2-2-------|
|-0-0-0-0-0-------0-------0-0-0-0-0-------0-------0-0-0-0-0-------|

Guitar 1
|-----------------------------------------------------------------|
|-----------------------------------------------------------------|
|-----------------------------------------------------------------|
|-----------------------------------------------------------------|
|-2-2-2-2-2-------2-------2-2-2-2-2-------------------------------|
|-0-0-0-0-0-------0-------0-0-0-0-0-6----3----6----3----6----3----|

Guitar 2
|-----------------------------------------------------------------|
|-----------------------------------------------------------------|
|-----------------------------------------------------------------|
|-----------------------------------8----5----8----5----8----5----|
|-2-2-2-2-2-------2-------2-2-2-2-2-------------------------------|
|-0-0-0-0-0-------0-------0-0-0-0-0-------------------------------|

____________________________________________________________________________


Both Guitars
|-----------------------------------------------------------------|
|-----------------------------------------------------------------|
|-----------------------------------------------------------------|
|-----------------------------------------------------------------|
|-2-2-2-2-2-------2-------2-2-2-2-2-------2-------2-2-2-2-2-------|
|-0-0-0-0-0-------0-------0-0-0-0-0-------0-------0-0-0-0-0-------|

|-----------------------------------------------------------------|
|-----------------------------------------------------------------|
|-----------------------------------------------------------------|
|-----------------------------------------------------------------|
|-2-2-2-2-2-------2-------2-2-2-2-2-------2-------------0-1-------|
|-0-0-0-0-0-------0-------0-0-0-0-0-------0-------0-1-3-----------|

|-----------------------------------------------------------------|
|-----------------------------------------------------------------|
|-----------------------------------------------------------------|
|-----------------------------------------------------------------|
|-2-2-2-2-2-------2-------2-2-2-2-2-------2-------2-2-2-2-2-------|
|-0-0-0-0-0-------0-------0-0-0-0-0-------0-------0-0-0-0-0-------|

Guitar 1
|-----------------------------------------------------------------|
|-----------------------------------------------------------------|
|-----------------------------------------------------------------|
|-----------------------------------------------------------------|
|-2-2-2-2-2-------2-------2-2-2-2-2-------------------------------|
|-0-0-0-0-0-------0-------0-0-0-0-0-6----3----6----3----6----3----|

Guitar 2
|-----------------------------------------------------------------|
|-----------------------------------------------------------------|
|-----------------------------------------------------------------|
|-----------------------------------8----5----8----5----8----5----|
|-2-2-2-2-2-------2-------2-2-2-2-2-------------------------------|
|-0-0-0-0-0-------0-------0-0-0-0-0-------------------------------|

____________________________________________________________________________


Guitar 1 continues playing the same part and guitar 2 play the below

Guitar 2
|---------------------------------------------------------------------|
|---8---8---8---8---7---7---7---7---10---10---10---10---8---8---8---8-|
|-9---9---9---9---9---9---9---9---9----9----9----9----9---9---9---9---|
|---------------------------------------------------------------------|
|---------------------------------------------------------------------|
|---------------------------------------------------------------------|

|---8---8---8---8---7---7---7---7---10---10---10---10---8---8---8---8-|
|---------------------------------------------------------------------|
|-9---9---9---9---9---9---9---9---9----9----9----9----9---9---9---9---|
|---------------------------------------------------------------------|
|---------------------------------------------------------------------|
|---------------------------------------------------------------------|

Guitar 1
|-----------------------------------------------------------------|
|-----------------------------------------------------------------|
|-----------------------------------------------------------------|
|-----------------------------------------------------------------|
|-2-2-2-2-2-------2-------2-2-2-2-2-------2-------2-2-2-2-2-------|
|-0-0-0-0-0-------0-------0-0-0-0-0-------0-------0-0-0-0-0-------|

Guitar 2
|-----------------------------------------------------------------|
|---10---8---7---5------------------------------------------------|
|-9----9---9---9---7----------------------------------------------|
|-----------------------------------------------------------------|
|-----------------------------------------------------------------|
|-----------------------------------------------------------------|

Guitar 1
|---------------------------|
|---------------------------|
|---------------------------|
|---------------------------|
|-2-2-2-2-2-----------------|
|-0-0-0-0-0-----------------|

Guitar 2
|---------------------------|
|---------------------------|
|-(7)-----------------------|
|---------------------------|
|---------------------------|
|---------------------------|

____________________________________________________________________________

Verse 1 part 1
Both guitars
|-----------------------------------|
|-----------------------------------|
|-----------------------------------|
|---------------8-7-----------------|
|-------8-7-5-------10-8-10-8-7-8-7-|
|-0-5-6-----------------------------|

|-----------------------------------|
|-----------------------------------|
|--------------------------10-9-7---|
|---------------8-7---------------8-|
|-------8-7-5-------10-8-7----------|
|-0-5-6-----------------------------|

|-----------------------------------|
|-----------------------------------|
|-----------------------------------|
|---------------8-7-----------------|
|-------8-7-5-------10-8-10-8-7-8-7-|
|-0-5-6-----------------------------|

|------------------------------------|
|------------------------------------|
|------------------------------------|
|------------------------------------|
|-4--1--1--1--1--1--4--1--1--1--1--1-|
|-4--1--1--1--1--1--4--1--1--1--1--1-|

Verse 1 part 2
|-------------------------------------|
|-------------------------------------|
|-------------------------------------|
|-13-10-10-10-10-10-13-10-10-10-10-10-|
|-11--8--8--8--8--8-11--8--8--8--8--8-|
|-------------------------------------|

____________________________________________________________________________


Verse 2
Both guitars
|---------------------------------|
|---------------------------------|
|---------------------------------|
|---------------------------------|
|-2-----------2-------5---3---5---|
|-0---000-000-0---000-3---1---3---|

|---------------------------------|
|---------------------------------|
|---------------------------------|
|---------------------------------|
|-2-----------5---3---2---6---5---|
|-0---000-0---3---1---0---4---3---|

|---------------------------------|
|---------------------------------|
|---------------------------------|
|---------------------------------|
|-2-----------2-------5---3---5---|
|-0---000-000-0---000-3---1---3---|

|----------------------------------|
|----------------------------------|
|-------------------------10-9-7---|
|-----------------8-7-5----------8-|
|---------8-7-5---------7----------|
|-6-5-3-0-------6------------------|

____________________________________________________________________________


Verse 3
Both guitars
|-----------------|
|-----------------|
|-----------------|
|-----------------|
|-6-------5---7---|
|-7-------6---8---|

____________________________________________________________________________


Chorus 1
Both guitars
|-------------------------------------|---------------------------------|
|-------------------------------------|---------------------------------|
|-------------------------------------|---------------------------------|
|-7-7-7-7-10-10-10-10-9-9-9-9-7-7-7-7-|-6-6-6-6-7-7-7-7-9-9-9-9---------|
|-------------------------------------|-------------------------7-7-7-7-|
|-------------------------------------|---------------------------------|

|--------------------------------------|-------------------------------------|
|--------------------------------------|-------------------------------------|
|---------9-9-9-9-7-7-7-7--------------|-------------7-7-7-7-----------------|
|-------------------------10-10-10-10--|-10-10-10-10---------9-9-9-9-7-7-7-7-|
|-8-8-8-8------------------------------|-------------------------------------|
|--------------------------------------|-------------------------------------|

|---------------------------------------------|-----------------------------------------|
|---------------------------------------------|-----------------------------------------|
|-14-14-14-14-10-10-10-10-9-9-9-9-------------|---------------------------------9-9-9-9-|
|---------------------------------12-12-12-12-|-9-9-9-9-10-10-10-10-12-12-12-12---------|
|---------------------------------------------|-----------------------------------------|
|---------------------------------------------|-----------------------------------------|

|-------------------------------------|-------------------------------------|
|-------------------------------------|-------------------------------------|
|-------------9-9-9-9-7-7-7-7---------|-------------------------------------|
|-10-10-10-10-----------------9-9-9-9-|-10-10-10-10-9-9-9-9-7-7-7-7-6-6-6-6-|
|-------------------------------------|-------------------------------------|
|-------------------------------------|-------------------------------------|

____________________________________________________________________________


Repeat Verse 2

Repeat Verse 3

____________________________________________________________________________


Chorus 2
Gutar 1
|-------------------------------------|---------------------------------|
|-------------------------------------|---------------------------------|
|-------------------------------------|---------------------------------|
|-7-7-7-7-10-10-10-10-9-9-9-9-7-7-7-7-|-6-6-6-6-7-7-7-7-9-9-9-9---------|
|-------------------------------------|-------------------------7-7-7-7-|
|-------------------------------------|---------------------------------|

|--------------------------------------|-------------------------------------|
|--------------------------------------|-------------------------------------|
|---------9-9-9-9-7-7-7-7--------------|-------------7-7-7-7-----------------|
|-------------------------10-10-10-10--|-10-10-10-10---------9-9-9-9-7-7-7-7-|
|-8-8-8-8------------------------------|-------------------------------------|
|--------------------------------------|-------------------------------------|

|---------------------------------------------|-----------------------------------------|
|---------------------------------------------|-----------------------------------------|
|-14-14-14-14-10-10-10-10-9-9-9-9-------------|---------------------------------9-9-9-9-|
|---------------------------------12-12-12-12-|-9-9-9-9-10-10-10-10-12-12-12-12---------|
|---------------------------------------------|-----------------------------------------|
|---------------------------------------------|-----------------------------------------|

|-------------------------------------|-------------------------------------|
|-------------------------------------|-------------------------------------|
|-------------9-9-9-9-7-7-7-7---------|-------------------------------------|
|-10-10-10-10-----------------9-9-9-9-|-10-10-10-10-9-9-9-9-7-7-7-7-6-6-6-6-|
|-------------------------------------|-------------------------------------|
|-------------------------------------|-------------------------------------|

Guitar 2
|---------------------------------|---------------------------------|
|---------------------------------|---------------------------------|
|-5-5-5-5-9-9-9-9-7-7-7-7-5-5-5-5-|-4-4-4-4-5-5-5-5-7-7-7-7---------|
|---------------------------------|-------------------------5-5-5-5-|
|---------------------------------|---------------------------------|
|---------------------------------|---------------------------------|

|-----------------------------------------|---------------------------------------------|
|-----------------------------------------|---------------------------------------------|
|---------12-12-12-12-10-10-10-10-9-9-9-9-|-9-9-9-9-10-10-10-10-------------------------|
|-7-7-7-7---------------------------------|---------------------12-12-12-12-10-10-10-10-|
|-----------------------------------------|---------------------------------------------|
|-----------------------------------------|---------------------------------------------|

|---------------------------------------------|-------------------------------------|
|-13-13-13-13-10-10-10-10-8-8-8-8-------------|-----------------------------8-8-8-8-|
|---------------------------------10-10-10-10-|-7-7-7-7-9-9-9-9-10-10-10-10---------|
|---------------------------------------------|-------------------------------------|
|---------------------------------------------|-------------------------------------|
|---------------------------------------------|-------------------------------------|

|-------------------------------------|---------------------------------|
|---------8-8-8-8---------------------|---------------------------------|
|-9-9-9-9---------10-10-10-10-7-7-7-7-|-9-9-9-9-7-7-7-7-5-5-5-5-4-4-4-4-|
|-------------------------------------|---------------------------------|
|-------------------------------------|---------------------------------|
|-------------------------------------|---------------------------------|

____________________________________________________________________________


Bridge
Guitar 1
|-----------------------------------------------------------------|
|-----------------------------------------------------------------|
|-----------------------------------------------------------------|
|-----------------------------------------------------------------|
|-7-------7-------7---------------5-------5-------5---------------|
|-5-------5-0-0-0-4-------0-0---0-3-------3-0-0-0-2-------0--0--0-|

Guitar 2
|-5--------------7---------------8---------------10----------12-------13-------|
|-8BU(10)--------10BU(12)--------11BU(13)--------13BU(15)----15BU(17)-16BU(18)-|
|------------------------------------------------------------------------------|
|------------------------------------------------------------------------------|
|------------------------------------------------------------------------------|
|------------------------------------------------------------------------------|

Guitar 1
|-------------------------------------------------------------------|
|-------------------------------------------------------------------|
|-------------------------------------------------------------------|
|-------------------------------------------------------------------|
|-3-------3-------7---5h7p5-3---2---0-------0-2-3-5-7---------------|
|-1-------1-0-0-0---------------------------------------------------|
|
|Guitar 3
|-------------------------------------------------------------------|
|-------------------------------------------------------------------|
|-------------------------------------------------------------------|
|----------------10--9h10p9-7---5---7-------------------------------|
|-----------------------------------------------8---7---------------|
|-------------------------------------------------------------------|

Guitar 2
|-12----------15-12-----------------------------------15--------------------------|
|-15BU(17)----------15-13-15BU(17)---13h15p13-15BU(17)--(17)(15)-13-15BU(17)------|
|---------------------------------------------------------------------------------|
|---------------------------------------------------------------------------------|
|---------------------------------------------------------------------------------|
|---------------------------------------------------------------------------------|

|-12-15BU(17)-15BU(17)-15BU(17)-15BU(17)-15BU(17)-|
|-------------------------------------------------|
|-------------------------------------------------|
|-------------------------------------------------|
|-------------------------------------------------|
|-------------------------------------------------|

____________________________________________________________________________


Verse 4
Both guitars
|----------------------------------|------------------------------------|
|----------------------------------|------------------------------------|
|-------------------------10-9-7---|------------------------------------|
|-----------------8-7-5----------8-|------------------------------------|
|---------8-7-5---------7----------|-4--1--1--1--1--1--4--1--1--1--1--1-|
|-6-5-3-0-------6------------------|-4--1--1--1--1--1--4--1--1--1--1--1-|

Repeat Verse 1 part 1

Repeat Verse 1 part 2

____________________________________________________________________________


Pre-solo
Both guitars
Part 1
|-------------------------------------------|
|-------------------------------------------|
|-12-0-10-0-12-13-12-0-12-0-10-0-12-13-12-0-|
|-------------------------------------------|
|-------------------------------------------|
|-------------------------------------------|

|--------------------------------------------|
|--------------------------------------------|
|-12-0-10-0-12-13-12-0-12-13-12-0-16-17-16-0-|
|--------------------------------------------|
|--------------------------------------------|
|--------------------------------------------|

Both guitars
Part 2
|-------------------------------------------|
|-12-0-10-0-12-13-12-0-12-0-10-0-12-13-12-0-|
|-------------------------------------------|
|-------------------------------------------|
|-------------------------------------------|
|-------------------------------------------|

|--------------------------------------------|
|-12-0-10-0-12-13-12-0-12-13-12-0-16-17-16-0-|
|--------------------------------------------|
|--------------------------------------------|
|--------------------------------------------|
|--------------------------------------------|

Guitar 1
Part 3
|-12-0-10-0-12-13-12-0-12-0-10-0-12-13-12-0-|
|-------------------------------------------|
|-------------------------------------------|
|-------------------------------------------|
|-------------------------------------------|
|-------------------------------------------|

|-12-0-10-0-12-13-12-0-12-13-12-0-16-17-16-0-|
|--------------------------------------------|
|--------------------------------------------|
|--------------------------------------------|
|--------------------------------------------|
|--------------------------------------------|

Guitar 2
|-16-0-13-0-16-17-16-0-16-0-13-0-16-17-16-0-|
|-------------------------------------------|
|-------------------------------------------|
|-------------------------------------------|
|-------------------------------------------|
|-------------------------------------------|

|-16-0-13-0-16-17-16-0-16-17-16-0-19-20-17-0-|
|--------------------------------------------|
|--------------------------------------------|
|--------------------------------------------|
|--------------------------------------------|
|--------------------------------------------|

____________________________________________________________________________


Solo
Guitar 1
|---------------------------------|---------------------------------|
|---------------------------------|---------------------------------|
|---------------------------------|---------------------------------|
|-5-------7-----------8---7---5---|-5-------7-------8---7--10---8---|
|-3---0-0-5---0-0-0-0-6---5---3---|-3---0-0-5---0-0-6---5---8---6---|
|---------------------------------|---------------------------------|

Guitar 2
|-12WBD\\\\\\\\-------------------|-12WBD\--------------------------|
|---------------------------------|-------11WBD\--------------------|
|---------------------------------|-------------9WBD\\\\\\\\--------|
|---------------------------------|---------------------------------|
|---------------------------------|---------------------------------|
|---------------------------------|---------------------------------|

|-18p15----------------------------15-18p15----15-|
|-------17----------------------17----------17----|
|----------18p15----------15h18-------------------|
|----------------17----17-------------------------|
|-------------------19----------------------------|
|-------------------------------------------------|

|-21p18----------------------------18-21WB(24)----|
|-------20----------------------20----------------|
|----------21p18----------18h21-------------------|
|----------------20----20-------------------------|
|-------------------22----------------------------|
|-------------------------------------------------|

____________________________________________________________________________


Repeat Verse 3

Repeat Chorus

At the end of the chorus guitar 2 plays the below with
A wah wah pedal (Maybe some other effects as well)
|-------------------------------------------------|
|-------------------------------------------------|
|-10-10-10-10-10-10-10-10-10-10-10-10-10-10-10-10-|
|-------------------------------------------------|
|--8--8--8--8--8--8--8--8--8--8--8--8--8--8--8--8-|
|-------------------------------------------------|

____________________________________________________________________________


Breakdown
Both guitars
|---------------------------------|
|---------------------------------|
|---------------------------------|
|---------------------------------|
|-3-2-----3-2-----3-2-----6sb-----|
|-1-0-----1-0-0-0-1-0-----4sb-----|

|---------------------------------|
|---------------------------------|
|---------------------------------|
|---------------------------------|
|-3-2-----3-2-----3-2-----6sb-----|
|-1-0-----1-0-0-0-1-0-----4sb-----|

|---------------------------------|
|---------------------------------|
|---------------------------------|
|---------------------------------|
|-3-2-----3-2-----3-2-----6sb-----|
|-1-0-0-0-1-0-0-0-1-0-0-0-4sb-----|

|---------------------------------|
|---------------------------------|
|---------------------------------|
|---------------------------------|
|-3-2-----3-2-----3-2-----6sb-----|
|-1-0-0-0-1-0-0-0-1-0-0-0-4sb-----|

____________________________________________________________________________


Acoustic section
Acoustic Guitar 1
|-----------------------------------------------------------------|
|---------------------------------------5---3---------------------|
|---2---5---4---2---1---2---4-------------------5---5---7---4---2-|
|-------------------------------2---3-----------------------------|
|-0---0---0---0-----------------------------------3---3---2---2---|
|-----------------4---4---4---4---1---1---1---1-------------------|

|---5-------------------------------------------------------------|
|-------6---5---3-----------3---5-------5---3---------------------|
|-------------------4---5-----------5-----------4---5---4---2---1-|
|-3---3---3---3-----------------------------------2---2---2---2---|
|---------------------------------0---0---0---0-------------------|
|-----------------0---0---0---0-----------------------------------|

Acoustic Guitar 2
|---------------------------------------3---1---0---0---1---------|
|---1---5---3---1---0---1---3-------------------------------3---1-|
|-------------------------------0---2-----------------------------|
|-----------------------------------------------------------------|
|-0---0---0---0-----------------------------------3---3---2---2---|
|-----------------4---4---4---4---1---1---1---1-------------------|

|---8---5---------------0---1---3---0---3---1---------------------|
|-----------8---6---3---------------------------3---5---3---------|
|-----------------------------------------------------------5---4-|
|-------------------------------------------------2---2---2---2---|
|-8---8---8---8-------------------0---0---0---0-------------------|
|-----------------0---0---0---0-----------------------------------|

____________________________________________________________________________


Guitar 2 repeats Chorus 1 whilst Guitar 1 plays the rhythm below

|-------------------------------------------------------------------|
|-------------------------------------------------------------------|
|-------------------------------------------------5-------4---------|
|-7---------------2---------------3---------------5-------5---------|
|-7---------------2---------------3---------------3-------2---------|
|-5-------5---5---0-------0-------1-------1-------------------------|

|-------------------------------------------------------------------|
|-------------------------------------------------------------------|
|-------------------------------------------------------------------|
|-3---------------2---------------7---------------2-----------------|
|-3---------------2---------------7---------------2-----------------|
|-1-------1---1---0-------0-------5-------5-------0-----------------|

____________________________________________________________________________


Repeat Bridge until fade out

____________________________________________________________________________


That's all guys, please rate :)





Comments


Popular Machine Head tabs & chords
Take My Scars Bass Tabs
Ten Ton Hammer Bass Tabs
Trephination Bass Tabs
Negative Creep Drum Tabs
All In Your Head 1 Tabs
Block Tabs
Blood,Sweat,Tears 2 Tabs
Crashing Around You Tabs
Locust Tabs
Silver 1 Tabs


Song lyrics



↑ Back to top | Tablatures and chords are parodies/interpretations of the original songs. You may use it for private study, scholarship, research or language learning purposes only
© 2014 AZChords.com Contact us | Privacy policy | DMCA | Add/correct tabs | Request tabs | Top 50 tabs