>
 >
Fromthis Day

Fromthis Day Bass Tabs

Machine Head - Fromthis Day chords, tabs, tablatures, lyrics

Guitar lessons | Add/correct | Request | Top 50 tabs Artists:  A B C D E F G H I J K L M N O P Q R S T U V W X Y Z 0-9

Fromthis Day Bass Tabs – Machine Head

CD, Sheet music, Poster

Do you like Fromthis Day? Share with your friends now
Bass Tabs
Machine Head
The Burning Red

Tuning (standard 5 string) B, E, A, D, G


Intro part 1: x7

|-----------------|			 
|-----------------|			 
|-----------------| 
|-----------------| 	 
|--0--------------|
			 


Intro part 2: x8

|--------------------------|
|--------------------------|
|--------------------------| 
|--------------------.-----| 
|--0-0-0-0---0--0--0-----|


Intro part 3: x2

|---------------------------------------|----|----|
|---------------------------------------|----|----|
|---------------------------------------|----|----|
|---------------------------------------|----|----|
|--0-0---0-0-0--0-0-0-03h6-6-6-6--|----|----|

|--------------------------------------------|
|--------------------------------------------|
|--------------------------------------------|
|--------------------------3-2-1-0-3-2-1-0--|
|--0-0---0-0-0---0-0-0--------------------|


Verse: X1

|---------------------|----|----|----|----|-----------------------|
|---------------------|----|----|----|----|-----------------------|
|---------------------|----|----|----|----|-----------------------|
|---------------------|----|----|----|----|-----------------------|
|--0---0-0---12\/12--|----|----|----|----|--0---0-0---12\--15\--|
 


chorus: x2

|------------------------------------------------------------------
|------------------------------------------------------------------
|------------------------------------------------------------------
|------------------------------------------------------------------
|--00--0-0-0-0-0-0-0-3h6-6-6-6-33--3-3-3-3-3-3-3-3h6-6-6-6-


|------------------------------------------------------------------|
|------------------------------------------------------------------|
|------------------------------------------------------------------|
|------------------------------------------------------------------|
|--8-8-8-8-8-8-8-8-8-8-8-8--7-10-10-10-10-11-11-11-11-11--------|

 
Post Chorus: x1

|----------|
|----------|
|----------|
|----------|
|--0----0--|


Verse: x1

|---------------------|----|----|------------------------|
|---------------------|----|----|------------------------|
|---------------------|----|----|------------------------|
|---------------------|----|----|------------------------|
|--0---0-0---12\/12--|----|----|--0---0-0---12\---15\--|


Chorus: x2



Interlude: x2

|----------------------------------------------------------|
|----------------------------------------------------------|
|----------------------------------------------------------|
|----------------------------------------------------------|
|--0-1-3--0-2-3--0-1-3--0-2-3--0-1-3--0-2-3--0-6-0--6-3-2--|


: x1
|----------------------------------------------------------|
|----------------------------------------------------------|
|----------------------------------------------------------|
|----------------------------------------------------------|
|--x-1-3--0-2-3--0-1-3--0-2-3--0-1-3--0-2-3--0-6-0--6-3-2--|


Part 2: x1 

|-----------------------------------|      
|-----------------------------------|
|-----------------------------------| 
|-----------------------------------|
|--0~~~~~~0----0~~~~~~0-------------|

Part 3: (the build up) x64

|-----|
|-----|
|-----|
|--2--|
|-----|


 last chorus: x1

|-------------------------------------------------------------------
|-------------------------------------------------------------------
|------------------------------------------------------------------- 
|-------------------------------------------------------------------
|--0---------------------3h6-6-6-6-33--3-3-3-3-3-3-3-3h6-6-6-6-



|------------------------------------------------------------------|
|------------------------------------------------------------------|
|------------------------------------------------------------------|
|------------------------------------------------------------------|
|--8-8-8-8-8-8-8-8-8-8-8--7-10-10-10-10-11-11-11-11-11---------|


Chorus: x3


Ending: x1


|-------------------------------|
|-------------------------------|
|-------------------------------|
|-------------------------------|
|--x-x--0-6-0-x-x-x-x-x6-3-2--|

ThAnKyOu PlEaSe RaTe!#!





Comments


Popular Machine Head tabs & chords
Imperium Drum Tabs
Negative Creep Drum Tabs
Exhale The Vile 1 Tabs
Farewell To Arms Tabs
I Am Hell Sonata In C 1 Tabs
Locust 1 Tabs
Machine Mess Tabs
Old 1 Tabs
Seasons Wither Tabs
Sick Of You Tabs


Song lyrics



↑ Back to top | Tablatures and chords are parodies/interpretations of the original songs. You may use it for private study, scholarship, research or language learning purposes only
© 2014 AZChords.com Contact us | Privacy policy | DMCA | Add/correct tabs | Request tabs | Top 50 tabs