>
 >
Down To None

Down To None Guitar Tabs

Machine Head - Down To None chords, tabs, tablatures, lyrics

Guitar lessons | Add/correct | Request | Top 50 tabs Artists:  A B C D E F G H I J K L M N O P Q R S T U V W X Y Z 0-9

Down To None Guitar Tabs – Machine Head

CD, Sheet music, Poster

Do you like Down To None? Share with your friends now
Bass TabsTabs
MACHINE HEAD 
DOWN TO NONE 
The More Things Change... 
 
 
 
 
 
    Riff A: 
C# |-----------------------------------------------------------------| 
G# |-----------------------------------------------------------------| 
 E |--------7--6--5-----------------7--6--5--------------------------| 
 B |-----------------6-----------------------6-----------------------| 
F# |--------------------------------------------6--6--6--6--6--------| 
 B |---0-----------------------0-------------------------------------| 
 
 
 
  Riff B: 
 |---------------------------------------------------------| 
 |---------------------------------------------------------| 
 |--------7--6--5-----------------7--6--5-----5--5--5--5---| 
 |-----------------6-----------------------6--6--6--6--6---| 
 |---------------------------------------------------------| 
 |---0-----------------------0-----------------------------| 
 
 
 
  Riff C: 
 |-----------------------------| 
 |-----------------------------| 
 |-----------7-----------------| 
 |-----------6-----------------| 
 |-----------5-----------------| 
 |---0----0-------0--3--3--1---| 
		     B  B  B					"B" means Bend 
 
 
  Riff D: 
 |-----------------------------------| 
 |-----------------------------------| 
 |-----------------------------------| 
 |-----------------------------------| 
 |------/5--4--3---------------------| 
 |---0------------6-----0--3--3--1---| 
		  B        B  B  B				"/" means Slide 
 
 
  Riff E: 
 |--------------------------------------------| 
 |--------------------------------------------| 
 |--------------------------------------------| 
 |--------------------------------------------| 
 |------/5--4--3-----------/5--4--3--1--1/4---| 
 |---0------------6--0--0------------1--1/4---| 
		  B							"B" means Bend 
 
 
 
 
  Riff F: 
 |-----------------------------| 
 |-----------------------------| 
 |-----------------(5)---------| 
 |---(5)-----------------------| 
 |-----------------------------| 
 |-----------------------------| 
						"(*)" means Natural Harmonic 
 
 
 
  Riff G: 
 |----------------------------------------------| 
 |----------------------------------------------| 
 |----------------------------------------------| 
 |----------------------------------------------| 
 |---0----------0----------0----------3-6-5-6---| 
 |---0--0-0-0-0-0--0-0-0-0-0--0-0-0-0-3-6-5-6---| 
 
 
 
  Riff H: 
 |----------------------------------------| 
 |----------------------------------------| 
 |----------------------------------------| 
 |----------------------------------------| 
 |---0----------0----------0----------3---| 
 |---0--0-0-0-0-0--0-0-0-0-0--0-0-0-0-3---| 
 
 
 
  Riff I: 
 |---------------------X-X-X-X---| 
 |---------------------X-X-X-X---| 
 |---------------------X-X-X-X---| 
 |---------------------X-X-X-X---| 
 |---1--0--1--0--1--0--X-X-X-X---| 
 |---1--0--1--0--1--0--X-X-X-X---| 
									"X" means Ghost-note 
 
 
  Riff J: 
 |----------------------------| 
 |----------------------------| 
 |----------------------------| 
 |---6-----6-----6--------8---| 
 |------5-----5-----5--6------| 
 |----------------------------| 
 
 
 
  Riff K: 
 |-------------------------------| 
 |-------------------------------| 
 |-------------------------------| 
 |-------------------------------| 
 |---0--0-----0--0-----0---------| 
 |---0--0_1---0--0_1---0_1-4-1---| 
									"_" means Hammer 
 
 
 
  Riff L: 
 |-------------------------------------| 
 |-------------------------------------| 
 |----------X-X---------X-X------------| 
 |----------X-X---------X-X------------| 
 |---0--0---X-X--0--0---X-X--0---------| 
 |---0--0_1------0--0_1------0_1-4-1---| 
									"_" means Hammer 
 
 
  Riff M:                           Riff N: 
 |------------------------|        |----------------------| 
 |------------------------|        |----------------------| 
 |------------------(5)---|        |----------------------| 
 |---(5)--(5)--(5)--------|        |----------------------| 
 |------------------------|        |---1--0--1--0--1--0---| 
 |------------------------|        |---1--0--1--0--1--0---| 
 
 
 
 
 
  Song Order: 
 
 Intro: Riff A 3x 
	  Riff B 1x 
	  Riff C 4x 
	  Riff D 4x (The 1st Guitar Playing Riff C) 
	  Riff E 4x (Played by both Guitars) 
 
 Part I: Riff F 2x 
	   Riff F 4x (The 2nd Guitar doing a "Wah-Wah" stuff) 
	   Riff G 4x ("Bow down to no one/ Bow down to none") 
	   Riff G 3x (1st Verse) 
	   Riff H 1x (1st Verse) 
 
	 Riff I 4x (Played by Guitar 1) 
	 Riff J 4x (Played by Guitar 2) 
 
 Part II: Riff F 4x (The 2nd Guitar doing a "Wah-Wah" stuff) 
	    Riff G 4x ("Bow down to no one/ Bow down to none") 
	    Riff G 3x (2nd Verse) 
	    Riff H 1x (2nd Verse) 
 
	Riff I 4x (Played by Guitar 1)   {Cold... Cold...} 
	Riff J 4x (Played by Guitar 2)   {Cold... Cold...} 
 
 Part III: Riff K 2x (Alone) 
	     Riff L 2x (Alone) 
	     Riff L 8x (Played by both Guitars) 
	     Riff M 4x (The 2nd Guitar doing a "Wah-Wah" stuff) 
	     Riff G 4x ("Bow down to no one/ Bow down to none") 
 
	Riff J 4x (Played by Guitar 1) 
	Riff G 4x (Played by Guitar 2) 
 
   Outro: Riff I 3x (Played by both Guitars) 
	    Riff N 1x





Comments


Popular Machine Head tabs & chords
Five Bass Tabs
Ten Tonne Hammer Bass Tabs
Trephination Bass Tabs
Violate 1 Bass Tabs
Beautiful Mourning Tabs
Burning Red 4 Tabs
Crashing Around You 1 Tabs
Death Church Tabs
Imperium 1 Tabs
Take My Scars 1 Tabs


Song lyrics



↑ Back to top | Tablatures and chords are parodies/interpretations of the original songs. You may use it for private study, scholarship, research or language learning purposes only
© 2014 AZChords.com Contact us | Privacy policy | DMCA | Add/correct tabs | Request tabs | Top 50 tabs