» » »

Machine Head, Deafining Silence Tabs (ver.1)

Artists:  A B C D E F G H I J K L M N O P Q R S T U V W X Y Z # 

Deafining Silence Tabs (ver.1)

Machine Head Tabs
Rating:
0/5 (0 votes)
Deafining Silence lessons Tabs too difficult? Try these video lessons and learn fast
                Machine HeaD



VERSE
gtr 2 slighty disto w/tremolo
C#|--------------|-------------|
G#|-----------0--|----------0--|
 E|-9------------|-9-----------|
 b|----10---9----|----7---9----|
F#|--------------|-------------|
 B|--------------|-------------|
  well she looks right into my eyes....

PRE-CHORUS
gtr 1 slighty disto w/tremolo
C#|------------|----------------|
G#|------------|----------------|
 E|------------|------------X8--|
 b|--9---9/10--|--9---9/10------|
F#|--7---7/8---|--7---7/8-------|
 B|------------|----------------|
  I've try to.....

CHORUS 

gtr 1 disto
C#|---------------------------------------------------------------------------|
G#|---------------------------------------------------------------------------|
 E|---------------------------------------------------------------------------|
 b|--7-7-------x-x--x-x-2-2-------x-x--x-x-3-3-------x-x--x-x-0-0-------------|
F#|--7-7-------x-x--x-x-2-2-------x-x--x-x-3-3-------x-x--x-x-0-0-------------|
 B|--7-7-------x-x--x-x-2-2-------x-x--x-x-3-3-------x-x--x-x-0-0-------------|

gtr 2 disto w/tremolo
C#|---------------------------------------------------------------------------|
G#|---------------------------------------------------------------------------|
 E|---------------------------------------------------------------------5*----|
 b|--7-7-------7*-------2-2-------5*-------3-3-------7*-------0-0-------------|
F#|--7-7--3*------------2-2--3*------------3-3--3*------------0-0--3*---------|
 B|--7-7----------------2-2----------------3-3----------------0-0-------------|
         See the pain....

gtr 1 disto
C#|---------------------------------------------------------------------------|
G#|---------------------------------------------------------------------------|
 E|---------------------------------------------------------------------------|
 b|--7-7-------x-x--x-x-2-2-------x-x--x-x-3-3-------x-x--x-x-5-5-------------|
F#|--7-7-------x-x--x-x-2-2-------x-x--x-x-3-3-------x-x--x-x-5-5-------------|
 B|--7-7-------x-x--x-x-2-2-------x-x--x-x-3-3-------x-x--x-x-5-5-------------|

gtr 2 disto w/tremolo
C#|---------------------------------------------------------------------------|
G#|---------------------------------------------------------------------------|
 E|---------------------------------------------------------------------5*----|
 b|--7-7-------7*-------2-2-------5*-------3-3-------7*-------5-5-------------|
F#|--7-7--3*------------2-2--3*------------3-3--3*------------5-5--3*---------|
 B|--7-7----------------2-2----------------3-3----------------5-5-------------|
         With the laughter......

VERSE
gtr 2 slighty disto w/tremolo
C#|--------------|-------------|
G#|-----------0--|----------0--|
 E|-9------------|-9-----------|
 b|----10---9----|----7---9----|
F#|--------------|-------------|
 B|--------------|-------------|
  Well she says that im....

PRE-CHORUS
gtr 1 slighty disto w/tremolo
C#|------------|----------------|
G#|------------|----------------|
 E|------------|------------X8--|
 b|--9---9/10--|--9---9/10------|
F#|--7---7/8---|--7---7/8-------|
 B|------------|----------------|
  I've try to....

CHORUS-2

gtr 1 disto
C#|---------------------------------------------------------------------------|
G#|---------------------------------------------------------------------------|
 E|---------------------------------------------------------------------------|
 b|--7-7-------x-x--x-x-2-2-------x-x--x-x-3-3-------x-x--x-x-0-0-------------|
F#|--7-7-------x-x--x-x-2-2-------x-x--x-x-3-3-------x-x--x-x-0-0-------------|
 B|--7-7-------x-x--x-x-2-2-------x-x--x-x-3-3-------x-x--x-x-0-0-------------|

gtr 2 disto w/tremolo
C#|---------------------------------------------------------------------------|
G#|---------------------------------------------------------------------------|
 E|---------------------------------------------------------------------5*----|
 b|--7-7-------7*-------2-2-------5*-------3-3-------7*-------0-0-------------|
F#|--7-7--3*------------2-2--3*------------3-3--3*------------0-0--3*---------|
 B|--7-7----------------2-2----------------3-3----------------0-0-------------|
         See the pain....

gtr 1 disto
C#|---------------------------------------------------------------------------|
G#|---------------------------------------------------------------------------|
 E|---------------------------------------------------------------------------|
 b|--7-7-------x-x--x-x-2-2-------x-x--x-x-3-3-------x-x--x-x-5-5-------------|
F#|--7-7-------x-x--x-x-2-2-------x-x--x-x-3-3-------x-x--x-x-5-5-------------|
 B|--7-7-------x-x--x-x-2-2-------x-x--x-x-3-3-------x-x--x-x-5-5-------------|

gtr 2 disto w/tremolo
C#|---------------------------------------------------------------------------|
G#|---------------------------------------------------------------------------|
 E|---------------------------------------------------------------------5*----|
 b|--7-7-------7*-------2-2-------5*-------3-3-------7*-------5-5-------------|
F#|--7-7--3*------------2-2--3*------------3-3--3*------------5-5--3*---------|
 B|--7-7----------------2-2----------------3-3----------------5-5-------------|
         With the laughter......

gtr 1 disto
C#|---------------------------------------------------------------------------|
G#|---------------------------------------------------------------------------|
 E|---------------------------------------------------------------------------|
 b|--7-7--7-7--7-7--7-7-2-2--2-2--2-2--2-2-3-3--3-3--3-3--3-3-5-5-------------|
F#|--7-7--7-7--7-7--7-7-2-2--2-2--2-2--2-2-3-3--3-3--3-3--3-3-5-5-------------|
 B|--7-7--7-7--7-7--7-7-2-2--2-2--2-2--2-2-3-3--3-3--3-3--3-3-5-5-------------|

gtr 2 disto w/tremolo
C#|---------------------------------------------------------------------------|
G#|---------------------------------------------------------------------------|
 E|---------------------------------------------------------------------5*----|
 b|--7-7-------7*-------2-2-------5*-------3-3-------7*-------5-5-------------|
F#|--7-7--3*------------2-2--3*------------3-3--3*------------5-5--3*---------|
 B|--7-7----------------2-2----------------3-3----------------5-5-------------|
         Don't need your........

BRIDGE

C#|-----------------------------------------------|
G#|-----------------------------------------------|
 E|-----------------------------------------------|
 b|--7---------3------------0-----------3---------|
F#|--7---------3------------0-----------3---------|
 B|--7---------3------------0-----------3---------|

SOLO
gtr 1 disto
C#|---------------------------------------------------------------------------|
G#|---------------------------------------------------------------------------|
 E|---------------------------------------------------------------------------|
 b|--7-7--7-7--7-7--7-7-2-2--2-2--2-2--2-2-3-3--3-3--3-3--3-3-5-5-------------|
F#|--7-7--7-7--7-7--7-7-2-2--2-2--2-2--2-2-3-3--3-3--3-3--3-3-5-5-------------|
 B|--7-7--7-7--7-7--7-7-2-2--2-2--2-2--2-2-3-3--3-3--3-3--3-3-5-5-------------|
  pm . .  . .  . .  . . . .  . .  . .  . . . .  . .  . .  . . . .

PRE-CHORUS
gtr 1 slighty disto w/tremolo
C#|------------|------------|--------------------------|
G#|------------|------------|--------------------------|
 E|------------|------------|------------------------x2|
 b|--9---9/10--|--9---9/10--|--9---9/10--10/7--7/10----|
F#|--7---7/8---|--7---7/8---|--7---7/8----8/5--5/8-----|
 B|------------|------------|--------------------------|
  I've try to....

CHORUS-3

gtr 1 disto
C#|---------------------------------------------------------------------------|
G#|---------------------------------------------------------------------------|
 E|---------------------------------------------------------------------------|
 b|--7-7--7-7--7-7--7-7-2-2--2-2--2-2--2-2-3-3--3-3--3-3--3-3-5-5-------------|
F#|--7-7--7-7--7-7--7-7-2-2--2-2--2-2--2-2-3-3--3-3--3-3--3-3-5-5-------------|
 B|--7-7--7-7--7-7--7-7-2-2--2-2--2-2--2-2-3-3--3-3--3-3--3-3-5-5-------------|

gtr 2 disto w/tremolo
C#|---------------------------------------------------------------------------|
G#|---------------------------------------------------------------------------|
 E|---------------------------------------------------------------------5*----|
 b|--7-7-------7*-------2-2-------5*-------3-3-------7*-------0-0-------------|
F#|--7-7--3*------------2-2--3*------------3-3--3*------------0-0--3*---------|
 B|--7-7----------------2-2----------------3-3----------------0-0-------------|
         See the pain....

gtr 1 disto
C#|---------------------------------------------------------------------------|
G#|---------------------------------------------------------------------------|
 E|---------------------------------------------------------------------------|
 b|--7-7--7-7--7-7--7-7-2-2--2-2--2-2--2-2-3-3--3-3--3-3--3-3-5-5-------------|
F#|--7-7--7-7--7-7--7-7-2-2--2-2--2-2--2-2-3-3--3-3--3-3--3-3-5-5-------------|
 B|--7-7--7-7--7-7--7-7-2-2--2-2--2-2--2-2-3-3--3-3--3-3--3-3-5-5-------------|

gtr 2 disto w/tremolo
C#|---------------------------------------------------------------------------|
G#|---------------------------------------------------------------------------|
 E|---------------------------------------------------------------------5*----|
 b|--7-7-------7*-------2-2-------5*-------3-3-------7*-------5-5-------------|
F#|--7-7--3*------------2-2--3*------------3-3--3*------------5-5--3*---------|
 B|--7-7----------------2-2----------------3-3----------------5-5-------------|
         With the laughter......

gtr 1 disto
C#|---------------------------------------------------------------------------|
G#|---------------------------------------------------------------------------|
 E|---------------------------------------------------------------------------|
 b|--7-7--7-7--7-7--7-7-2-2--2-2--2-2--2-2-3-3--3-3--3-3--3-3-5-5-------------|
F#|--7-7--7-7--7-7--7-7-2-2--2-2--2-2--2-2-3-3--3-3--3-3--3-3-5-5-------------|
 B|--7-7--7-7--7-7--7-7-2-2--2-2--2-2--2-2-3-3--3-3--3-3--3-3-5-5-------------|

gtr 2 disto w/tremolo
C#|---------------------------------------------------------------------------|
G#|---------------------------------------------------------------------------|
 E|---------------------------------------------------------------------5*----|
 b|--7-7-------7*-------2-2-------5*-------3-3-------7*-------5-5-------------|
F#|--7-7--3*------------2-2--3*------------3-3--3*------------5-5--3*---------|
 B|--7-7----------------2-2----------------3-3----------------5-5-------------|
         Don't need your........

I´m working on the solo the tab is 100% correct 

ituarte
            

comments powered by Disqus
↑ Back to top | Machine Head Tabs for Deafining Silence. Lyrics for acoustic guitar and electric guitar. Tablatures and chords are parodies/interpretations of the original songs. You may use it for private study, scholarship, research or language learning purposes only