» » »

Machine Head, Bite The Bullet Tabs (ver.1)

Artists:  A B C D E F G H I J K L M N O P Q R S T U V W X Y Z # 

Bite The Bullet Tabs (ver.1)

Machine Head Tabs
Rating:
5/5 (2 votes)
Bite The Bullet lessons Tabs too difficult? Try these video lessons and learn fast
                Band - Machine Head
Song - Bite The Bullet

Tuning: C# G# E B F# B
Key:
pm - palm mute
b  - bend
r  - release bend
~  - trill
sp - scr*pe pick
<> - natural harmonic

C#|----------------|    |-----/11-11-11--|-----/11-11-11---|
G#|----------------|    |----------------|-----------------|
E |----------------|    |-----/8--8--8---|-----/8--8--8----|
B |----------------| x4 |----------------|-----------------| x2
F#|--***1----------|    |--1-------------|--1--------------|
B |--***1----------|    |--1-------------|--1--------------|

C#|-----------------------------|-------------------------------|
G#|-----------------------------|-------------------------------|
E |-----------------------------|-------------------------------|
B |-----------------------------|---------------------------<16>|
F#|--0-0-0-0-0--0-0-0-0-0--0-0-0|--0-0-0-0-0--0-0-0-0-0--0-0----|
B |--0-0-0-0-0--0-0-0-0-0--0-0-0|--0-0-0-0-0--0-0-0-0-0--0-0----|
  pm . . . .    . . . .    . .     . . . .    . . . .    . .

C#|-----------------------------|-------------------------------|
G#|-----------------------------|-------------------------------|
E |-----------------------------|-------------------------------|
B |-----------------------------|-------------------------------|
F#|--0-0-0-0-0--0-0-0-0-0--0-0-0|--0-0-0-0-0--0-0-0-0-0--0-0-0--|
B |--0-0-0-0-0--0-0-0-0-0--0-0-0|--0-0-0-0-0--0-0-0-0-0--0-0-0--|\
  pm . . . .    . . . .    . .     . . . .    . . . .    . .      \ x2
                                                                  /
C#|-----------------------------|-------------------------------|/
G#|-----------------------------|-------------------------------|
E |-8--8-8-8--8-8-8-8-8--8-8-8--|-8--8-8-8--8-8-8-8-8--8-8-8----|
B |-8--8-8-8--8-8-8-8-8--8-8-8--|-8--8-8-8--8-8-8-8-8--8-8-8----|
F#|-6--6-6-6--6-6-6-6-6--6-6-6--|-6--6-6-6--6-6-6-6-6--6-6-6----|
B |-----------------------------|-------------------------------|

C#|-----------------------------|-------------------------------|
G#|-----------------------------|-------------------------------|
E |-----------------------------|-------------------------------|
B |-----------------------------|-------------------------------|
F#|--0-0-0-0-0--0-0-0-0-0--0-0-0|--0-0-0-0-0--0-0-0-0-0--0-0-0--|
B |--0-0-0-0-0--0-0-0-0-0--0-0-0|--0-0-0-0-0--0-0-0-0-0--0-0-0--|
  pm . . . .    . . . .    . .     . . . .    . . . .    . .

C#|--------------|----------------------------------|
G#|--------------|----------------------------------|
E |--------------|----------------------------------|
B |--1----10--6--|----------------------------------| x3
F#|--1----10--6--|----------------------------------|
B |--1----10--6--|-0-6-5-3-5-3-0-3--0-6-5-3-5-3-0-3-|

C#|-8----8--------|-----------------|
G#|-8--8----------|-----------------|
E |-5------5------|-----------------|
B |-5-------------|--6--5--3--6-5-3-|
F#|---------------|--6--5--3--6-5-3-|
B |---------------|--6--5--3--6-5-3-|

C#|---------|        |-----------|
G#|---------|        |-----------|
E |--7b8r7--|        |--7b10r7\--|
B |---------| repeat |-----------|
F#|---------|        |-----------|
B |---------|        |-----------|

C#|--9-8-6-8-6--6--9-8-6-8-6-6-|
G#|-7----------7--7---------7--|
E |----------------------------|
B |----------------------------| x2
F#|----------------------------|
B |----------------------------|
  pm .. . . . . .. . . . . ...

C#|--9-8-6-8-6--6--9-8-6-8-6-6-|-11-10-8-10-8--8--11-10-8-10-8--8-|
G#|-7----------7--7---------7--|-------------10-10------------10--|
E |----------------------------|----------------------------------|
B |----------------------------|----------------------------------|
F#|----------------------------|----------------------------------|
B |----------------------------|----------------------------------|
pm  .. . . . . .. ..

C#|---------------------------------|    |---------------------------------|
G#|---------------------------------|    |---------------------------------|
E |---------------------------------|    |---------------------------------|
B |-0-6-5-3-5-3-0-3-0-6-5-3-5-3-0-3-| x2 |-0-6-5-3-5-3-0-3-0-6-5-3-5-3-0-3-| x2
F#|-0-6-5-3-5-3-0-3-0-6-5-3-5-3-0-3-|    |-0-6-5-3-5-3-0-3-0-6-5-3-5-3-0-3-|
B |-0-6-5-3-5-3-0-3-0-6-5-3-5-3-0-3-|    |-0-6-5-3-5-3-0-3-0-6-5-3-5-3-0-3-|
                                         pm. . . . . . . . . . . . . . . .

C#|---------------------------------|
G#|---------------------------------|
E |---------------------------------|
B |-0-6-5-3-5-3-0-3-0-6-5-3-5-3-0-3-| x4
F#|-0-6-5-3-5-3-0-3-0-6-5-3-5-3-0-3-|
B |-0-6-5-3-5-3-0-3-0-6-5-3-5-3-0-3-|

C#|--------------|----------------------------------|
G#|--------------|----------------------------------|
E |--------------|----------------------------------|
B |--1----10--6--|----------------------------------|
F#|--1----10--6--|-0-6-5-3-5-3-0-3--0-6-5-3-5-3-0-3-|
B |--1----10--6--|----------------------------------|\
                                                      | x3
C#|--------------|--17(18)~~~~~~~~~~~~~~------------|/
G#|--------------|----------------------------------|
E |--------------|----------------------------------|
B |--------------|----------------------------------|
F#|--------------|----------------------------------|
B |--------------|----------------------------------|


C#|-8----8--------|-----------------|
G#|-8--8----------|-----------------|
E |-5------5------|-----------------|
B |-5-------------|--6--5--3--6-5-3-|
F#|---------------|--6--5--3--6-5-3-|
B |---------------|--6--5--3--6-5-3-|

C#|-----------------------------|-------------------------|
G#|-----------------------------|-------------------------|
E |-----------------------------|-------------------------|
B |-----------------------------|---------------------<16>|
F#|--0-0-0-0-0--0-0-0-0-0--0-0-0|--0-0-0-0-0--0-0-0-0-----|
B |--0-0-0-0-0--0-0-0-0-0--0-0-0|--0-0-0-0-0--0-0-0-0-----|
  pm . . . .    . . . .    . .     . . . .    . . . .
            

comments powered by Disqus
↑ Back to top | Machine Head Tabs for Bite The Bullet. Lyrics for acoustic guitar and electric guitar. Tablatures and chords are parodies/interpretations of the original songs. You may use it for private study, scholarship, research or language learning purposes only