» » »

A Thousand Lies Tabs (ver.1)

Artists:  A B C D E F G H I J K L M N O P Q R S T U V W X Y Z # 

A Thousand Lies Tabs (ver.1)

Machine Head
Rating:
0/5 (0 votes)

Hard to play? Try these video lessons and learn fast.
                -----------------------------------------------------------------------------------------|
-----------------------------------------------------------------------------------------|
------------8--------------------8--------------8------------------------8---------------|
---------0--6----6------------0--6-----------0--6----6--------------0----6---------------|
-----0--------------8------0-------------0---------------8------0-----------x--x---3---1-|
-0----------------------0------------0-----------------------0--------------x--x---3---1-|

-Play 3 times-
---------------------------|-----------------------|
---------------------------|-----------------------|
---------------------------|-----------------------|
---------------------------|-----------------------|
---------------------------|--0--0--0--0----3---1--|
-0--0--0--0--0--0--0--0-0--|--0--0--0--0----3---1--|


-Play intro again then end with this-
-----------------------|---------------------------------|
-----------------------|---------------------------------|
------------8----------|-----------8--6--5--6---6--5--6--|
---------0--6----6-----|--------0--6--6--5--6---6--5--6--|
-----0--------------8--|-----0---------------------------|
-0---------------------|--0------------------------------|

------------------------|-----------------------------------------|
------------------------|-----------------------------------------|
------------8-----------|--------------8-8-8-8-8-8-8-8------------|
---------0--6----6------|---------0----6-6-6-6-6-6-6-6---8--10-8--|
-----0---------------8--|-----0--------------------------6--8--6--|
-0----------------------|--0--------------------------------------|


-Chorus-
---------------------------------|-------------------------------|
---------------------------------|-------------------------------|
---------------------------------|-------------------------------|
---------------------------------|-------------------------------|
-0-0--0--6/--0-0--0--0--0-0-0-0--|--0-0--0--6/--0-0--0--6-5-6-0--|
-0-0--0--6/--0-0--0--0--0-0-0-0--|--0-0--0--6/--0-0--0--6-5-6-0--|

---------------------------------|--------------------------------|
---------------------------------|--------------------------------|
---------------------------------|--------------------------------|
---------------------------------|--------------------------------|
-0-0--0--6/--0-0--0--0--0-0-0-0--|--0-0--0--6/--0-0--0---0--3--1--|
-0-0--0--6/--0-0--0--0--0-0-0-0--|--0-0--0--6/--0-0--0---0--3--1--|


----------------------|
----------------------|
----------------------|
----------------------|
-0-0-0-1-0-0-3-5-4-3--|
-0-0-0-1-0-0-3-5-4-3--|


---------------------|-------------------------------------------|
---------------------|-------------------------------------------|
---------------------|-------------------------------------------|
---------------------|-------------------------8-8-8-8--8-8-8-8--|
-0--0---0--0--0---0--|--0--0---0--3--3/6--6----6-6-6-6--6-6-6-6--|
-0--0---0--0--0---0--|--0--0---0--3--3/6--6----------------------|


-------------------|-------------------------|
-------------------|-------------------------|
-------------------|-------------------------|
-5-5-5-5--5-5-5-5--|-------------------------|
-3-3-3-3--3-3-3-3--|--3-----1----------------|
-------------------|--3-----1----------------|
            
Hard to play? Try these video lessons and learn fast. | Correct




comments powered by Disqus
↑ Back to top | Tablatures and chords are parodies/interpretations of the original songs. You may use it for private study, scholarship, research or language learning purposes only