» » »

Machine Head, A Nation On Fire Bass tabs (ver.1)

Artists:  A B C D E F G H I J K L M N O P Q R S T U V W X Y Z # 

A Nation On Fire Bass tabs (ver.1)

Machine Head Tabs
 Rating:
4/5 (4 votes)
A Nation On Fire lessons Tabs too difficult? Try these video lessons and learn fast
                INTRO
G:-------------------------------------------||
D:-------------------------------------------||
A:-------------------------------------------||
D:------0/9----9\--0--3--0--3--06060---------||
           ~~~~  <- Let Ring

VERSE
G:-------------------------------------------||
D:-------------------------------------------||
A:-------------------------------------------||
D:--0--3--0--3--06060------------------------||


BRIDGE 1
G:------------------||
D:------------------||
A:------------------||
D:--0--3--0--3--0666||


BRIDGE 2
G:--------------------||
D:--------------------||
A:--------------------||
D:--0003330003330333--||


CHORUS
G:-------------------------------------------||
D:-------------------------------------------||
A:-------------------------------------------||
D:--6-0-3-0-6-0-03030------------------------||


BREAKDOWN 1
G:------------------||
D:------------------||
A:------------------||
D:--00000000666333--||


BREAKDOWN 2
G:------------------||
D:------------------||
A:------------------||
D:--002h3003p2------||


BREAKDOWN 3
G:------------------||
D:------------------||
A:------------------||
D:--0-2-3-3-2-0-0---||


ORDER:

INTRO       X1

VERSE       X11

BRIDGE 1    X4

BRIDGE 2    X4

BRIDGE 1    X4

CHORUS      X8

VERSE       X10

BRIDGE 1    X4

BRIDGE 2    X4

BRIDGE 1    X4

CHORUS      X8

BREAKDOWN 1 X8

BREAKDOWN 2 X4

BREAKDOWN 1 X4

BREAKDOWN 2 X4 

BREAKDOWN 3 X1
            
Submit corrections

comments powered by Disqus
↑ Back to top | Machine Head Bass for A Nation On Fire. Lyrics for acoustic guitar and electric guitar. Tablatures and chords are parodies/interpretations of the original songs. You may use it for private study, scholarship, research or language learning purposes only