» » »

100 Fresh Disciples Bass tabs (ver.1)

Artists:  A B C D E F G H I J K L M N O P Q R S T U V W X Y Z # 

100 Fresh Disciples Bass tabs (ver.1)

Machine Gun Fellatio
Rating:
0/5 (0 votes)

Hard to play? Try these video lessons and learn fast.
                
Machine Gun Fellatio - 100 Fresh Disciples


The intro's the main bassy bit, so I've tabbed that to perfection.
The rest really has only one main bit, just a B note, with a lil bit 
played all over the place. That's about all the bass I can find in the
song ... enjoy!

INTRO:
                           x5
G||------------------------||------|--------|
D||*----------------------*||-.----|--rest--|
A||*-15----------13-15-13-*||-3----|-2-bars-|
E||--------13-14-----------||------|--------|

                             x4
G|----------||---------------||--------------|
D|-.--------||*----3/8----3-*||----3/8-------|
A|-2--------||*-2-----------*||-2--------14\-|
E|----------||---------------||--------------|

the rest of the song switches between these two bass lines

MAIN LINE 1:
G||-------------------------------||
D||*-----------------------------*||
A||*-2-2-2--2-2-2--2-2-2-2-2-2-2-*||
E||-------------------------------||

MAIN LINE 2:
G||-------||
D||*-3/8-*||
A||*-----*||
E||-------||

==========================================================================
            
Hard to play? Try these video lessons and learn fast. | Correct




comments powered by Disqus
↑ Back to top | Tablatures and chords are parodies/interpretations of the original songs. You may use it for private study, scholarship, research or language learning purposes only