» » »

Violator Tabs (ver.1)

Artists:  A B C D E F G H I J K L M N O P Q R S T U V W X Y Z # 

Violator Tabs (ver.1)

Machinae Supremacy
Rating:
0/5 (0 votes)

Hard to play? Try these video lessons and learn fast.
                Main Riff

e---------------------------------------------------------------------|
B---------------------------------------------------------------------|
G---------------------------------------------------------------------|
D---------7-----------7-----9-7-9-7-------7-----------7-9-7-9(11)-9-7-|
A---9-7-9---9-7-9-7-9---9-7---------9-7-9---9-7-9-7-9-----------------|
E---------------------------------------------------------------------|

repeat 2 times

Verse Lead

e--------------------------------------------------------------|
B--------------------------------------------------------------|
G---/11-9~-8----8-9-8------6-8-6--------/11-9~-8---8~--7-------|
D-4----------11-------11-9-------9-7--4----------11------------|
A--------------------------------------------------------------|
E--------------------------------------------------------------|

Repeat 2 times

Chorus

e---------------------------------------------------------------------------|
B---------------------------------------------------------------------------|
G--7--7--7---7--7-7-7--7---5--5--5---5--5-5-5--5----------------------------|
D--7--7--7---7--7-7-7--7---5--5--5---5--5-5-5--5----------------------------|
A--5--5--5---5--5-5-5--5---2--2--2---2--2-2-2--2---5--5--5---5-5-5-2--------|
E--------------------------------------------------2--2--2---2-2-2-0--------|

e-------------------------------------------------------------------------|
B-------------------------------------------------------------------------|
G---------------------7--7--7---7--7-7--7--7--9--9--9-9--6--6--6-6--------|
D---------------------7--7--7---7--7-7--7--7--9--9--9-9--6--6--6-6--------|
A-5--5--5---5-5-5-2---5--5--5---5--5-5--5--5--7--7--7-7--4--4--4-4--------|
E-2--2--2---2-2-2-0-------------------------------------------------------|

e----------------------------------------------------------------------|
B----------------------------------------------------------------------|
G----------------------------------------------------------------------|
D----------------------------------------------------------------------|
A-------0-----------0-----2-0-2-0-------0-------0-2-0-2(3)-2-0---------|
E-2-0-2---2-0-2-0-2---2-0---------2-0-2---2-0-2------------------------|

SOLO:
                                                    (harmony)
e--------------------------------------------------- ---------------------|
B--------7--------------------7----------9-------10- ---------12-10-------|
G--9-8-6---9-8(9)-9-6~--9-8-6---9-8-9-11---11-13---- -13-10-9-------11(13-|
D--------------------------------------------------- ---------------------|
A--------------------------------------------------- ---------------------|
E--------------------------------------------------- ---------------------|

e--------------------------------9----9-11- ---------------------------------|
B------------------12-10-9-10-12---12------ --------------------14-14h-16-14-|
G-13-10~---13-10-9------------------------- --14h16-14-13-14-16--------------|
D------------------------------------------ ---------------------------------|
A------------------------------------------ ---------------------------------|
E------------------------------------------ ---------------------------------|

e----------12-14------------------------------------------------------------|
B-12-14-16--------12--------------------------------------------------------|
G-----------------14Bu(16)14-11h14p11-----------------------9h10h11h9h10h11-|
D---------------------------------------------9h10h119h10h11----------------|
A--------------------------------------9h10h11------------------------------|
E---------------------------------------------------------------------------|

e-------------------------------------------------------------------|
B-10h12h13/19----------------19p17p16h17p16p14h16p14p12h14p12p10----|
G-------------14h16-14-13-14----------------------------------------|
D-------------------------------------------------------------------|
A-------------------------------------------------------------------|
E-------------------------------------------------------------------|

e------------------14-12----16-14----16(17)-----------------------------|
B-10h12p10p9-------------12-------14------------------------------------|
G------------9-8-9------------------------------------------------------|
D-----------------------------------------------------------------------|
A-----------------------------------------------------------------------|
E-----------------------------------------------------------------------|
            
Hard to play? Try these video lessons and learn fast. | Correct




comments powered by Disqus
↑ Back to top | Tablatures and chords are parodies/interpretations of the original songs. You may use it for private study, scholarship, research or language learning purposes only