» » »

Through The Looking Glass Tabs (ver.1)

Artists:  A B C D E F G H I J K L M N O P Q R S T U V W X Y Z # 

Through The Looking Glass Tabs (ver.1)

Machinae Supremacy
Rating:
0/5 (0 votes)

Tabs too difficult? Try these video lessons and learn fast.
                (Intro)
-------------------------------------------------------------------------------
			     THROUGH THE LOOKING GLASS - Machinae Supremacy
-------------------------------------------------------------------------------

Tuning: Guitar I: Drop D (eBGDAD)
	 Guitar II: Drop D (eBGDAD)


***Disclaimer*** Yes, i know Machinae Supremacy has 2 guitars tuned to Drop B and one standard
(or drop d?). However, i refuse to tune my guitar below drop d because of the warping it
to the wood and the difficulty in actually gettin it to stay in tune ;) So i tabbed out
i know so far in drop d. Maybe I’ll figure out the rest in drop b one day, but for now 
is what i’ve got. Enjoy!


[0:00]
Piano Intro (arranged for guitar)
e|---10-|----------------------------------------------------------|
B|------|o----------------------------------8-10--10-8-------------|
G|-7----|--7-9-10--9-10--9-10--9-7--7-9-10--------------10--9------|
D|------|-----------------------------------------------------10---|
A|------|o---------------------------------------------------------|
D|------|----------------------------------------------------------|

---------------------------------------------------------|
-------------8-10--8-----------------------8--8---10~---o|
-9-10--9-10----------9---7-9--9-7-10--10-7------7--------|
---------------------------------------------------------|  x4
--------------------------------------------------------o|
---------------------------------------------------------|

[0:19]
Guitar 1
e|------------------------------------------------------------|
B|------------------------------------------------------------|
G|------------------------------------------------------------|
D|-7--7-7-7--7-7-7--7-7-7--7-7-3--3-3-3--3-3-3--3-3-3--3-3----|
A|-5--5-5-5--5-5-5--5-5-5--5-5-1--1-1-1--1-1-1--1-1-1--1-1-3--|
D|---------------------------------------------------------3--|

---------------------------------------------------------|
---------------------------------------------------------|
---------------------------------------------------------|
--------------------------5--5-5-5--5-5-5--5-5-5--5-5----|
-3-3-3--3-3-3--3-3-3--3-3-3--3-3-3--3-3-3--3-3-3--3-3----|
-3-3-3--3-3-3--3-3-3--3-3--------------------repeat-once-|

[0:37]
Guitar 1
e|-------------------------------------------------------|
B|-------------------------------------------------------|
G|-------------------------------------------------------|
D|-7--7-7-7-7-7-7--5--7--10--5--7--7-7-7-7-7-7-----3--5--|
A|-5--5-5-5-5-5-5--3--5--8---3--5--5-5-5-5-5-5--3--1--3--|
D|----------------------------------------------3--------|

-----------------------------------------------------------|
-----------------------------------------------------------|
-----------------------------------------------------------|
-7--7-7-7-7-7-7--5--7--10--5--7--7-7-7-7-7-7---------------|
-5--5-5-5-5-5-5--3--5--8---3--5--5-5-5-5-5-5--3/////12-----|
----------------------------------------------3/////12-----|

Guitar 2
e|------------------------------------------------------------------------------------------|
B|--------------------------------------8---------------------------------------------------|
G|-/7--10-7-10-9~--10-9-7----7~--7-9-10---10-9~~--7-10-7-10-9~--10-9-7----7~-----------7~~\-|
D|------------------------10-------------------------------------------10-----7-7-8-10------|
A|------------------------------------------------------------------------------------------|
D|------------------------------------------------------------------------------------------|

...	 [0:55]
Guitar 1
e|-----|--------------------|
B|-----|--------------------|
G|-----|--------------------|
D|-----|-----------0--0-0\--|
A|-----|-----------0--0-0\--|
D|-----|-----------0--0-0\--|

Guitar 2
e|-----|--------------------|
B|-----|--------------------|
G|-----|-7-7-7-10-10-10-7\--|
D|-----|--------------------|
A|-----|---------------(5\)-|
D|-----|--------------------|


The reason i ended here is cuz the next part requires me to be tuned to drop b.
i hope that helps, if you can figure out the style of the song so far, the next part
be too hard. Good luck :)

| /  slide up
| \  slide down
| h  hammer-on
| p  pull-off
| ~  vibrato
| +  harmonic
| x  Mute note
===============================================================================
            
Tabs too difficult? Try these video lessons and learn fast.


comments powered by Disqus
↑ Back to top | Tablatures and chords are parodies/interpretations of the original songs. You may use it for private study, scholarship, research or language learning purposes only