>
 >
Soundtrack To The Rebellion

Soundtrack To The Rebellion Guitar Tabs

Machinae Supremacy - Soundtrack To The Rebellion chords, tabs, tablatures, lyrics

Guitar lessons | Add/correct | Request | Top 50 tabs Artists:  A B C D E F G H I J K L M N O P Q R S T U V W X Y Z 0-9

Soundtrack To The Rebellion Guitar Tabs – Machinae Supremacy

CD, Sheet music, Poster

Do you like Soundtrack To The Rebellion? Share with your friends now
Tabs
#----------------------------------PLEASE-NOTE---------------------------------#




This is my interpretation of the song, it might have few errors on it, so let me know if 
catch one here or there.

Notation legend:
~ = vibrato
pm = palm mute (the little dots under the lines)
ph = pinch harmonic
b = bend
/ = slide
t = tap
p = pull off

LISTEN TO THE RECORD as tabs weren't blessed with rhytm marks
-------------------------------------------------------------

Tuning (from low); B,E,A,D,F#,B

I think this is the tuning which the MaSu -dudes use, unless they got 7-string gtrs.


{--------------------------O-O----------------------------------}
{--------------------------O-O----------------------------------}


[INTRO]
|------------------------------------------------------|
|---------------------------------------7--5-----------|
|------6--4-6-----6--4-6------6--4-6---------8-------6-|
|--6~----------6~---------2~-------------------9-6-9---|
|------------------------------------------------------|
|------------------------------------------------------|

|---------------------------------------------------------|
|---------------------------------------------------------|
|------6--4-6-----6--4-6------6--4-6----4--3--------------|
|--6~----------4~---------2~-----------------6-4--3-4-(6)-|
|---------------------------------------------------------|
|---------------------------------------------------------|

|------------------------------------------------------|
|---------------------------------------7--5-----------|
|------6--4-6-----6--4-6------6--4-6---------8-------6-|
|--6~----------6~---------2~-------------------9-6-9---|
|------------------------------------------------------|
|------------------------------------------------------|

|--------------------------------------------------------|
|--------------------------------------------------------|
|------6--4-6-----6--4-6------6--4-6----4--3-------------|
|--6~----------4~---------2~-----------------6-4--2-3-4~-|
|--------------------------------------------------------|
|--------------------------------------------------------|
						  . .
|--------------------x/-----------------------|
|--------------------x/-----------------------|
|--------------------x/-----------------------|
|---3-4-6~~~---------x/---------------7-6-----|
|--------------------x/----4-4-4-4-4------7-6-|
|--------------------x/-----------------------|
    . .			   . . . . .

[VERSE]
|---------------------------------------------------------4~--7~-|
|-----------------5--------------------------4----5--7~----------|
|------6---4-6------6-----4-6------------6-----6-----------------|
|--7-7---7-----7------6-------6----------------------------------|
|-----------------------------------4-4----4---------------------|
|----------------------------------------------------------------|
   . .   .     .      .             . .    .   .

|----------------------------------------------------------------------|
|----------------4--2--------------------------------------------------|
|------4---6-4--------4---4-6-------------4---4-2--/-11--11--11-11--11-|
|-----------------------4-----4-------2-2---2------/-11--11--11-11--11-|
|--2-2---2-----2-----------------------------------/-9---9---9--9---9--|
|----------------------------------------------------------------------|
   . .   .     .        .             . .   .                .  .

REPEAT VERSE

[PRE-CHORUS]
|---------------------------------------------------------------------------------|
|---------------------------------------------------------------------------------|
|--7--7-7--7--7-7-7-7--7--7-7--7--7-7-7-7--4--4-4--4--4-4-4-4--4--4-4--4--4-4-4-4-|
|--7--7-7--7--7-7-7-7--7--7-7--7--7-7-7-7--4--4-4--4--4-4-4-4--4--4-4--4--4-4-4-4-|
|--5--5-5--5--5-5-5-5--5--5-5--5--5-5-5-5--2--2-2--2--2-2-2-2--2--2-2--2--2-2-2-2-|
|---------------------------------------------------------------------------------|
      . .     . . . .     . .     . . . .     . .     . . . .     . .     . . . .

|----------------------------------------------------------------------------------------------|
|----------------------------------------------------------------------------------------------|
|--7--7-7--7--7-7-7-7--7--7-7--7--7-7-7-7--/11-11-11-11--11-11-11-11--11-11-11-11--11-11-11-11-|
|--7--7-7--7--7-7-7-7--7--7-7--7--7-7-7-7--/11-11-11-11--11-11-11-11--11-11-11-11--11-11-11-11-|
|--5--5-5--5--5-5-5-5--5--5-5--5--5-5-5-5--/9--9--9--9---9--9--9--9---9--9--9--9---9--9--9--9--|
|----------------------------------------------------------------------------------------------|
      . .     . . . .     . .     . . .


|-------------------------|
|-------------------------|
|-------------------------|
|-4--4--4-4----4--4--4--2-|
|-4--4--4-4----4--4--4--2-|
|-2--2--2-2----2--2--2--0-|
     .

[CHORUS] (play along with these power chords)

|-------------------|
|-------------------|
|--6-----------4----|
|--6---6---7---4----|
|--4---6---7---2----|
|------4---5--------|

|------------------------------|
|------------------------------|
|--6-------------------------4-|
|--6---6---7---4--2-4-2-4-2--4-|
|--4---6---7---4--2-4-2-4-2--2-|
|------4---5---2--0-2-0-2-0----|
		  . . . . .


[INTRO LEAD]
|------------------------------------4---5--4-------4---|
|------5--4-5--4---4--5-7-5----5--7-----------7-5-7---7-|
|--6----------------------------------------------------|
|-------------------------------------------------------|
|-------------------------------------------------------|
|-------------------------------------------------------|

|-------------------------4----4----------------------------|
|--5---5--4-5--4---4--5-7---------7--5-4--5-4---------------|
|---------------------------------------------6-4---3-4-(6)-|
|-----------------------------------------------------------|
|-----------------------------------------------------------|
|-----------------------------------------------------------|

|------------------------------------4---5--4-------4---|
|------5--4-5--4---4--5-7-5----5--7-----------7-5-7---7-|
|--6----------------------------------------------------|
|-------------------------------------------------------|
|-------------------------------------------------------|
|-------------------------------------------------------|

|-------------------------4----4--------------------------|
|--5---5--4-5--4---4--5-7---------7--5-4--5-4-------------|
|---------------------------------------------6-4---3-4-6-|
|---------------------------------------------------------|
|---------------------------------------------------------|
|---------------------------------------------------------|

|-------------------------------9~-7---------|
|------------------------------------9-7-----|
|--2-4-6~------------6-6-6-6-6-----------9~--|
|--------------------------------------------|
|--------------------------------------------|
|--------------------------------------------|
		     . . . . .

|---------------------------------------------------------4~--7~-|
|-----------------5--------------------------4----5--7~----------|
|------6---4-6------6-----4-6------------6-----6-----------------|
|--7-7---7-----7------6-------6----------------------------------|
|-----------------------------------4-4----4---------------------|
|----------------------------------------------------------------|
   . .   .     .      .             . .    .   .

|----------------------------------------------------------------------|
|----------------4--2--------------------------------------------------|
|------4---6-4--------4---4-6-------------4---4-2--/-11--11--11-11--11-|
|-----------------------4-----4-------2-2---2------/-11--11--11-11--11-|
|--2-2---2-----2-----------------------------------/-9---9---9--9---9--|
|----------------------------------------------------------------------|
   . .   .     .        .             . .   .                .  .


  [VERSE LEAD]
||---------------------------------------------------------------------||
||-----------------9-7t9p7/5---5-7-----------------4---5--4~----5~--4~-||
||---------------------------6-----6-----------6-----6-----------------||
||---------------------------------------------------------------------||
||----------------------------------------4-4----4---------------------||
||---------------------------------------------------------------------||
||								       ||
||--------------------------------------------------------------4~--7~-||
||-----------------5-------------------------------4----5--7~----------||
||------6---4-6------6----------4-6------------6-----6-----------------||
||--7-7---7-----7------6------------6----------------------------------||
||----------------------------------------4-4----4---------------------||
||---------------------------------------------------------------------||
    . .   .     .      .                  . .    .   .
|----------------------------------------------------------------------|
|----------------4--2--------------------------------------------------|
|------4---6-4--------4---4-6-------------4---4-2--/-11--11--11-11--11-|
|-----------------------4-----4-------2-2---2------/-11--11--11-11--11-|
|--2-2---2-----2-----------------------------------/-9---9---9--9---9--|
|----------------------------------------------------------------------|
   . .   .     .        .             . .   .                .  .

|---------------------------------------------------------------------------------|
|---------------------------------------------------------------------------------|
|--7--7-7--7--7-7-7-7--7--7-7--7--7-7-7-7--4--4-4--4--4-4-4-4--4--4-4--4--4-4-4-4-|
|--7--7-7--7--7-7-7-7--7--7-7--7--7-7-7-7--4--4-4--4--4-4-4-4--4--4-4--4--4-4-4-4-|
|--5--5-5--5--5-5-5-5--5--5-5--5--5-5-5-5--2--2-2--2--2-2-2-2--2--2-2--2--2-2-2-2-|
|---------------------------------------------------------------------------------|
      . .     . . . .     . .     . . . .     . .     . . . .     . .     . . . .

|----------------------------------------------------------------------------------------------|
|----------------------------------------------------------------------------------------------|
|--7--7-7--7--7-7-7-7--7--7-7--7--7-7-7-7--/11-11-11-11--11-11-11-11--11-11-11-11--11-11-11-11-|
|--7--7-7--7--7-7-7-7--7--7-7--7--7-7-7-7--/11-11-11-11--11-11-11-11--11-11-11-11--11-11-11-11-|
|--5--5-5--5--5-5-5-5--5--5-5--5--5-5-5-5--/9--9--9--9---9--9--9--9---9--9--9--9---9--9--9--9--|
|----------------------------------------------------------------------------------------------|
      . .     . . . .     . .     . . .


|--------------------------|
|--------------------------|
|--------------------------|
|-4--4--4-4----4--4--4--2--|
|-4--4--4-4----4--4--4--2--|
|-2--2--2-2----2--2--2--0--|


[CHORUS]


[GTR SOLO] (play intro for backround)
|----------5-7~--------7-9/-----------------------------------------------------|
|------7-9--------9-10----------12-14--12-----------------7-9-------------------|
|----6----------9-----------9~------------11--9--6~-----6-----ph8-----4-6-8-6~--|
|-------------------------------------------------------------------4-----------|
|-------------------------------------------------------------------------------|
|-------------------------------------------------------------------------------|

  [LEAD]
||--------------------------------------------------------------9-11-12-||
||---------------------------------------------------9-7~--9-12---------||
||---------8-9----8----8-----8-9-11--8-9----9-8-9-11--------------------||
||-11-9-11-----11--------11--------------11-----------------------------||
||------------------11--------------------------------------------------||
||----------------------------------------------------------------------||
||									||
||[2nd LEAD]								||
||----------------------------------------------------------------14-16-||
||-------------------------------------------------------14-16-17-------||
||----------------------------------------------------------------------||
||----------------------------------------------------------------------||
||----------------------------------------------------------------------||
||----------------------------------------------------------------------||

  [LEAD]
||--9~-----11-------9------------7----------------------------------------------||
||-------------9-------10----------7--------------------------------------------||
||--------------------------------------6-4-3--2-4-6~---4-6-9~------6/--------5-||
||------------------------------------------------------------------6/---5-3--5-||
||------------------------------------------------------------------4/---5-3--3-||
||-----------------------------------------------------------------------3-1----||
||										||
||[2nd LEAD]									||
||------------------------------12----------------------------------------------||
||--14---19--16--17---14-----------12-------------------------------------------||
||--------------------------------------8-6-4--6-8-9~---8-9-11~-----2/--------5-||
||------------------------------------------------------------------2/---5-3--5-||
||------------------------------------------------------------------4/---5-3--3-||
||-----------------------------------------------------------------------3-1----||


[CHORUS] (transponated ˝step up)
|---------------------|
|---------------------|
|--7---2---3---5------|
|--7---2---3---5------|
|--5---0---1---3------|
|---------------------|

|-------------------------------|
|-------------------------------|
|--7---2---3-----------------5--|
|--7---2---3---5--3-5-3-5-3--5--|
|--5---0---1---5--3-5-3-5-3--3--|
|--------------3--1-3-1-3-1-----|

  [LEAD]
||-------10-12-13-----17b18b17--15-15b17b15--13---15-15-17b18b17---15--13-12--13b15b13-||
||-10-13-------------------------------------------------------------------------------||
||-------------------------------------------------------------------------------------||
||-------------------------------------------------------------------------------------||
||-------------------------------------------------------------------------------------||
||-------------------------------------------------------------------------------------||
||										       ||
||[2nd LEAD]									       ||
||-------------------------------------------------------------------------------------||
||----10-11-13-15------17b18b17--17-17b18b17-15---17-17-ph17b18b17-15--13-15--17--15---||
||-12----------------------------------------------------------------------------------||
||-------------------------------------------------------------------------------------||
||-------------------------------------------------------------------------------------||
||-------------------------------------------------------------------------------------||

[OUTRO]
|-------------------------------------------------------|
|-------------------------------------------------------|
|--3---3--3--3-3--3-----5--3--3--3--3-3--5-5-5-5-5-5-5/-|
|--3---3--3--3-3--3-5-3-5--3--3--3--3-3--5-5-5-5-5-5-5/-|
|--1---1--1--1-1--1-5-3-3--1--1--1--1-1--3-3-3-3-3-3-7/-|
|-------------------3-1---------------------------------|

[OUTRO LEAD]
|--------------------------------12-12-|
|--------13-15-------------13-15-------|
|--14-15----------12-14-15-------------|
|--------------15----------------------|
|--------------------------------------|
|--------------------------------------|

[OUTRO LEAD]
|----------------12-13-13------------12-13-15--13-12-------17-17-18-17~~-|
|----------13-15---------------13-15-----------------15-13---------------|
|-12-14-15---------------14-15-------------------------------------------|
|------------------------------------------------------------------------|
|------------------------------------------------------------------------|
|------------------------------------------------------------------------|

This tabs may've left to be a bit short with vibratos and such small cosmetic errors.
Comments are wished. Thanks.





Comments


Popular Machinae Supremacy tabs & chords
Persona Bass Tabs
One Day In The Universe Chords
Flagcarrier Intro Tabs
Flimbos Quest Tabs
Gimme More Tabs
Killer Instinct Tabs
Ronin Tabs
Sidstyler Tabs
Skin Ukulele
The Greatest Show On Earth Ukulele


Song lyrics



↑ Back to top | Tablatures and chords are parodies/interpretations of the original songs. You may use it for private study, scholarship, research or language learning purposes only
© 2014 AZChords.com Contact us | Privacy policy | DMCA | Add/correct tabs | Request tabs | Top 50 tabs