» » »

Machinae Supremacy, Rise Of A Digital Nation Tabs (ver.1)

Artists:  A B C D E F G H I J K L M N O P Q R S T U V W X Y Z # 

Rise Of A Digital Nation Tabs (ver.1)

Machinae Supremacy Tabs
 Rating:
4/5 (4 votes)
Rise Of A Digital Nation lessons Tabs too difficult? Try these video lessons and learn fast
1
                
Might not be 100% accurate. Also posted on the Machinae Supremacy forum:


Feel free to make any notes or corrections about it on that topic.

e|-----------------------------------------------------------------------------------------------|
B|-----------------------------------------------------------------------------------------------|
G|-----9---6-------9---6-----------------9---6-------9---6---------------------------------------|
D|-7-7---7---7-7-7---7---7-7-----------7---7---7-7-7---7---7-7-----------------------------------|
A|---------------------------9-7-9-----------------------------9-7-9-----------------------------|
d|-----------------------------------------------------------------------------------------------|
  PMPM  PM  PM  PM  PM  PM            PM  PM  PM  PM  PM  PM  
          

e|-----------------------------------------------------------------------------------------------|
B|-----------------------------------------------------------------------------------------------|
G|-----9---6-------9---6-----------------9---6-------6-------------------------------------------|
D|-7-7---7---7-7-7---7---7-7-----------7---7---7-7-7---7-7-7-9-6---------------------------------|
A|---------------------------9-7-9-------------------------------7/9-----------------------------|
d|-----------------------------------------------------------------------------------------------|
  PMPM  PM  PM  PM  PM  PM            PM  PM  PM  PM  PM  PM  


e|-----------------------------------------------------------------------------------------------|
B|-----------------------------------------------------------------------------------------------|
G|-----9---6-------9---6-------------------------------------------------------------------------|
D|-7-7---7---7-7-7---7---7-7---------------------------------------------------------------------|
A|---------------------------9-7-9-------7-4-7-4-------4-----------------------------------------|
d|-----------------------------------------------9-6-9---9-6-7-6-2/4-----------------------------|
  PMPM  PM  PM  PM  PM  PM                 


e|-----------------------------------------------------------------------------------------------|
B|-----------------------------------------------------------------------------------------------|
G|-----9---6-------9---6-----------------9---6-------6-------------------------------------------|
D|-7-7---7---7-7-7---7---7-7-----------7---7---7-7-7---7-7-7-9-6---------------------------------|
A|---------------------------9-7-9-------------------------------7/9-----------------------------|
d|-----------------------------------------------------------------------------------------------|
  PMPM  PM  PM  PM  PM  PM            PM  PM  PM  PM  PM  PM  


e|-----------------------------------------------------------------------------------------------|
B|-----------------------------------------------------------------------------------------------|
G|-----9---6-------9---6-------------------------------------------------------------------------|
D|-7-7---7---7-7-7---7---7-7---------------------------------------------------------------------|
A|---------------------------9-7-9-------7-4-7-4-------4-----------------------------------------|
d|-----------------------------------------------9-6-9---9-6-7-6-2/4-----------------------------|
  PMPM  PM  PM  PM  PM  PM                 


e|----------------------------------|
B|----------------------------------|
G|-----9---6-------9---6------------|
D|-7-7---7---7-7-7---7---7-7--------|
A|---------------------------9-7-9--|
d|----------------------------------|
  PMPM  PM  PM  PM  PM  PM


e|------------------------------------------------------------------------|
B|------------------------------------------------------------------------|
G|------------------------------------------------------------------------|
D|------------------------------------------------------------------------|
A|----11--11------11--11--11-9-11-12----12--12------14--14--16-14-12-11---|
d|1111--11----1111--11----------------11--11----1111--11------------------|
  PMPM  PM    PMPM  PM                PM  PM    PMPM  PM    


e|---------------------------------------------------------------------------------|
B|---------------------------------------------------------------------------------|
G|---------------------------------------------------------------------------------|
D|---------------------------------------------------------------------------------|
A|----11--11------11--11--11-9-11-12----12--12------14--12-14-16-14-12-16-14-------|
d|1111--11----1111--11----------------11--11----1111-------------------------------|
  PMPM  PM    PMPM  PM                PM  PM    PMPM      


e|--------------------------------------------------------------------------------|
B|--------------------------------------------------------------------------------|
G|-----------------------------------------4-----4------4------4------4---4-------|
D|-----4------4------4------4------4---4---4-----4------4------4------4---4-------|
A|-----4------4------4------4------4---4---2-2-2-2--2-2-2--2-2-2--2-2-2-2-2-2-----|
d|-4-4-4--4-4-4--4-4-4--4-4-4--4-4-4-4-4-4----------------------------------------|
  PMPM   PMPM   PMPM   PMPM   PMPM  PM  PM  PMPM   PMPM   PMPM   PMPM  PM  PM


e|--------------------------------------------------------------------------------|
B|--------------------------------------------------------------------------------|
G|-----7------7------7------7------7---7---9-----9------9------9------9---9-------|
D|-----7------7------7------7------7---7---9-----9------9------9------9---9-------|
A|-5-5-5--5-5-5--5-5-5--5-5-5--5-5-5-5-5-5-7-7-7-7--7-7-7--7-7-7--7-7-7-7-7-7-----|
d|--------------------------------------------------------------------------------|
  PMPM   PMPM   PMPM   PMPM   PMPM  PM  PM  PMPM   PMPM   PMPM   PMPM  PM  PM


e|----------------------------------|
B|----------------------------------|
G|----------------------------------|
D|-------2/4-----2------------------|
A|---------------------5----4-5-----|
d|-4--------------------------------|


e|-----------------------------------------------------------------------------------------------|
B|-----------------------------------------------------------------------------------------------|
G|-----------------------------------------------------------------------------------------------|
D|---------4-----------------------4-------------2-----2---------0-----------------------0-------|
A|---------4-----------------------4-------------2-----2---------0-----------------------0-------|
d|-4-4-4-4-4---------------4-4-4-4-4-----2-2-2-2-2-----2-0-0-0-0-0---------------0-0-0-0-0-------|
  PMPMPMPM                PMPMPMPM      PMPMPMPM        PMPMPMPM                PMPMPMPM


e|---------------|
B|---------------|
G|---------------|
D|-0-0-0-0-0-0-0-|
A|-0-0-0-0-0-0-0-|
d|-2-2-2-2-2-2-2-|
  PMPMPMPMPMPMPM


e|-----------------------------------------------------------------------------------------------|
B|-----------------------------------------------------------------------------------------------|
G|-----------------------------------------------------------------------------------------------|
D|---------4-----------------------4-------------2-----2---------0---------------7---------------|
A|---------4-----------------------4-------------2-----2---------0---------------7---------------|
d|-4-4-4-4-4---------------4-4-4-4-4-----2-2-2-2-2-----2-0-0-0-0-0---------------7---------------|
  PMPMPMPM                PMPMPMPM      PMPMPMPM        PMPMPMPM                


e|---------------|
B|---------------|
G|---------------|
D|-0-0-0-0-0-0-0-|
A|-0-0-0-0-0-0-0-|
d|-2-2-2-2-2-2-2-|
  PMPMPMPMPMPMPM


e|----------------|
B|----------------|
G|-9---6----------|
D|---7---7-7------|
A|-----------9-7--|
d|----------------|
    PM  PM    


e|------------------------------------------------------------------------|
B|------------------------------------------------------------------------|
G|------------------------------------------------------------------------|
D|------------------------------------------------------------------------|
A|----11--11------11--11--11-9-11-12----12--12------14--14--16-14-12-11---|
d|1111--11----1111--11----------------11--11----1111--11------------------|
  PMPM  PM    PMPM  PM                PM  PM    PMPM  PM    


e|---------------------------------------------------------------------------------|
B|---------------------------------------------------------------------------------|
G|---------------------------------------------------------------------------------|
D|---------------------------------------------------------------------------------|
A|----11--11------11--11--11-9-11-12----12--12------14--12-14-16-14-12-16-14-------|
d|1111--11----1111--11----------------11--11----1111-------------------------------|
  PMPM  PM    PMPM  PM                PM  PM    PMPM      


e|--------------------------------------------------------------------------------|
B|--------------------------------------------------------------------------------|
G|-----------------------------------------4-----4------4------4------4---4-------|
D|-----4------4------4------4------4---4---4-----4------4------4------4---4-------|
A|-----4------4------4------4------4---4---2-2-2-2--2-2-2--2-2-2--2-2-2-2-2-2-----|
d|-4-4-4--4-4-4--4-4-4--4-4-4--4-4-4-4-4-4----------------------------------------|
  PMPM   PMPM   PMPM   PMPM   PMPM  PM  PM  PMPM   PMPM   PMPM   PMPM  PM  PM


e|--------------------------------------------------------------------------------|
B|--------------------------------------------------------------------------------|
G|-----7------7------7------7------7---7---9-----9------9------9------9---9-------|
D|-----7------7------7------7------7---7---9-----9------9------9------9---9-------|
A|-5-5-5--5-5-5--5-5-5--5-5-5--5-5-5-5-5-5-7-7-7-7--7-7-7--7-7-7--7-7-7-7-7-7-----|
d|--------------------------------------------------------------------------------|
  PMPM   PMPM   PMPM   PMPM   PMPM  PM  PM  PMPM   PMPM   PMPM   PMPM  PM  PM


e|----------------------------------|
B|----------------------------------|
G|----------------------------------|
D|-------2/4-----2------------------|
A|---------------------5----4-5-----|
d|-4--------------------------------|


e|-----------------------------------------------------------------------------------------------|
B|-----------------------------------------------------------------------------------------------|
G|-----------------------------------------------------------------------------------------------|
D|---------4-----------------------4-------------2-----2---------0-----------------------0-------|
A|---------4-----------------------4-------------2-----2---------0-----------------------0-------|
d|-4-4-4-4-4---------------4-4-4-4-4-----2-2-2-2-2-----2-0-0-0-0-0---------------0-0-0-0-0-------|
  PMPMPMPM                PMPMPMPM      PMPMPMPM        PMPMPMPM                PMPMPMPM


e|---------------|
B|---------------|
G|---------------|
D|-0-0-0-0-0-0-0-|
A|-0-0-0-0-0-0-0-|
d|-2-2-2-2-2-2-2-|
  PMPMPMPMPMPMPM


e|-----------------------------------------------------------------------------------------------|
B|-----------------------------------------------------------------------------------------------|
G|-----------------------------------------------------------------------------------------------|
D|---------4-----------------------4-------------2-----2---------0---------------7---------------|
A|---------4-----------------------4-------------2-----2---------0---------------7---------------|
d|-4-4-4-4-4---------------4-4-4-4-4-----2-2-2-2-2-----2-0-0-0-0-0---------------7---------------|
  PMPMPMPM                PMPMPMPM      PMPMPMPM        PMPMPMPM                


e|---------------|
B|---------------|
G|---------------|
D|-0-0-0-0-0-0-0-|
A|-0-0-0-0-0-0-0-|
d|-2-2-2-2-2-2-2-|
  PMPMPMPMPMPMPM


e|----------------|
B|----------------|
G|-9---6----------|
D|---7---7-7------|
A|-----------9-7--|
d|----------------|
    PM  PM    


e|-----------------------------------------------------------------------------------------------|
B|-----------------------------------------------------------------------------------------------|
G|-----9---6-------9---6-----------------9---6-------6-------------------------------------------|
D|-7-7---7---7-7-7---7---7-7-----------7---7---7-7-7---7-7-7-9-6---------------------------------|
A|---------------------------9-7-9-------------------------------7/9-----------------------------|
d|-----------------------------------------------------------------------------------------------|
  PMPM  PM  PM  PM  PM  PM            PM  PM  PM  PM  PM  PM  


e|-----------------------------------------------------------------------------------------------|
B|-----------------------------------------------------------------------------------------------|
G|-----9---6-------9---6-------------------------------------------------------------------------|
D|-7-7---7---7-7-7---7---7-7---------------------------------------------------------------------|
A|---------------------------9-7-9-------7-4-7-4-------4-----------------------------------------|
d|-----------------------------------------------9-6-9---9-6-7-6-2/4-----------------------------|
  PMPM  PM  PM  PM  PM  PM                 


e|-----------------------------------------------------------------------------------------------|
B|-----------------------------------------------------------------------------------------------|
G|-----9---6-------9---6-----------------9---6-------6-------------------------------------------|
D|-7-7---7---7-7-7---7---7-7-----------7---7---7-7-7---7-7-7-9-6---------------------------------|
A|---------------------------9-7-9-------------------------------7/9-----------------------------|
d|-----------------------------------------------------------------------------------------------|
  PMPM  PM  PM  PM  PM  PM            PM  PM  PM  PM  PM  PM  


e|-----------------------------------------------------------------------------------------------|
B|-----------------------------------------------------------------------------------------------|
G|-----9---6-------9---6-------------------------------------------------------------------------|
D|-7-7---7---7-7-7---7---7-7---------------------------------------------------------------------|
A|---------------------------9-7-9-------7-4-7-4-------4-----------------------------------------|
d|-----------------------------------------------9-6-9---9-6-7-6-2/4-----------------------------|
  PMPM  PM  PM  PM  PM  PM                 


e|----------------------------------------------------------------------------------------|
B|----------------------------------------------------------------------------------------|
G|----------------------------------------------------------------------------------------|
D|-4----------4-4-4-4-4-4-4-4-4-2----------2-2-2-2-2-2-2-2-2-0----------0-0-0-0-0-0-0-0-0-|
A|-4----------4-4-4-4-4-4-4-4-4-2----------2-2-2-2-2-2-2-2-2-0----------0-0-0-0-0-0-0-0-0-|
d|-4----------4-4-4-4-4-4-4-4-4-2----------2-2-2-2-2-2-2-2-2-0----------0-0-0-0-0-0-0-0-0-|


e|------------------------------|
B|------------------------------|
G|------------------------------|
D|-2----------2-2-2-2-2-2-2-2-2-|
A|-2----------2-2-2-2-2-2-2-2-2-|
d|-2----------2-2-2-2-2-2-2-2-2-|


e|----------------------------------------------------------------------------------------|
B|----------------------------------------------------------------------------------------|
G|----------------------------------------------------------------------------------------|
D|-4----------4-4-4-4-4-4-4-4-4-2----------2-2-2-2-2-2-2-2-2-0----------0-0-0-0-0-0-0-0-0-|
A|-4----------4-4-4-4-4-4-4-4-4-2----------2-2-2-2-2-2-2-2-2-0----------0-0-0-0-0-0-0-0-0-|
d|-4----------4-4-4-4-4-4-4-4-4-2----------2-2-2-2-2-2-2-2-2-0----------0-0-0-0-0-0-0-0-0-|


e|------------------------------|
B|------------------------------|
G|------------------------------|
D|-2----------2-2-2-2-2-2-2-2-2-|
A|-2----------2-2-2-2-2-2-2-2-2-|
d|-2----------2-2-2-2-2-2-2-2-2-|


----------------------------------------------------------------------------------------------
[MISSING SOLO]
----------------------------------------------------------------------------------------------


[Silence, chorus follows]


e|-----------------------------------------------------------------------------------------------|
B|-----------------------------------------------------------------------------------------------|
G|-----------------------------------------------------------------------------------------------|
D|---------4-----------------------4-------------2-----2---------0-----------------------0-------|
A|---------4-----------------------4-------------2-----2---------0-----------------------0-------|
d|-4-4-4-4-4---------------4-4-4-4-4-----2-2-2-2-2-----2-0-0-0-0-0---------------0-0-0-0-0-------|
  PMPMPMPM                PMPMPMPM      PMPMPMPM        PMPMPMPM                PMPMPMPM


e|---------------|
B|---------------|
G|---------------|
D|-0-0-0-0-0-0-0-|
A|-0-0-0-0-0-0-0-|
d|-2-2-2-2-2-2-2-|
  PMPMPMPMPMPMPM


e|-----------------------------------------------------------------------------------------------|
B|-----------------------------------------------------------------------------------------------|
G|-----------------------------------------------------------------------------------------------|
D|---------4-----------------------4-------------2-----2---------0---------------7---------------|
A|---------4-----------------------4-------------2-----2---------0---------------7---------------|
d|-4-4-4-4-4---------------4-4-4-4-4-----2-2-2-2-2-----2-0-0-0-0-0---------------7---------------|
  PMPMPMPM                PMPMPMPM      PMPMPMPM        PMPMPMPM                


e|---------------|
B|---------------|
G|---------------|
D|-0-0-0-0-0-0-0-|
A|-0-0-0-0-0-0-0-|
d|-2-2-2-2-2-2-2-|
  PMPMPMPMPMPMPM


e|-----------------------------------------------------------------------------------------------|
B|-----------------------------------------------------------------------------------------------|
G|-----------------------------------------------------------------------------------------------|
D|-4-------------------------------------2---------------0---------------------------------------|
A|-4-------------------------------------2---------------0---------------------------------------|
d|-4-------------------------------------2---------------0---------------------------------------|


e|---------------|
B|---------------|
G|---------------|
D|-0-------------|
A|-0-------------|
d|-2-------------|



e|-----------------------------------------------------------------------------------------------|
B|-----------------------------------------------------------------------------------------------|
G|-----------------------------------------------------------------------------------------------|
D|-4-------------------------------------2---------------0-----------------------7---------------|
A|-4-------------------------------------2---------------0-----------------------7---------------|
d|-4-------------------------------------2---------------0-----------------------7---------------|


e|---------------|
B|---------------|
G|---------------|
D|-0-------------|
A|-0-------------|
d|-2-------------|



e|-----------------------------------------------------------------------------------------------|
B|-----------------------------------------------------------------------------------------------|
G|-----------------------------------------------------------------------------------------------|
D|---------4-----------------------4-------------2-----2---------0-----------------------0-------|
A|---------4-----------------------4-------------2-----2---------0-----------------------0-------|
d|-4-4-4-4-4---------------4-4-4-4-4-----2-2-2-2-2-----2-0-0-0-0-0---------------0-0-0-0-0-------|
  PMPMPMPM                PMPMPMPM      PMPMPMPM        PMPMPMPM                PMPMPMPM


e|---------------|
B|---------------|
G|---------------|
D|-0-0-0-0-0-0-0-|
A|-0-0-0-0-0-0-0-|
d|-2-2-2-2-2-2-2-|
  PMPMPMPMPMPMPM


e|-----------------------------------------------------------------------------------------------|
B|-----------------------------------------------------------------------------------------------|
G|-----------------------------------------------------------------------------------------------|
D|---------4-----------------------4-------------2-----2---------0---------------7---------------|
A|---------4-----------------------4-------------2-----2---------0---------------7---------------|
d|-4-4-4-4-4---------------4-4-4-4-4-----2-2-2-2-2-----2-0-0-0-0-0---------------7---------------|
  PMPMPMPM                PMPMPMPM      PMPMPMPM        PMPMPMPM                


e|---------------|
B|---------------|
G|---------------|
D|-0-0-0-0-0-0-0-|
A|-0-0-0-0-0-0-0-|
d|-2-2-2-2-2-2-2-|
  PMPMPMPMPMPMPM


e|-----------|
B|-----------|
G|-----------|
D|---------4-|
A|---------4-|
d|-4-4-4-4-4-|
  PMPMPMPM
            
Submit corrections

comments powered by Disqus
↑ Back to top | Machinae Supremacy Tabs for Rise Of A Digital Nation. Lyrics for acoustic guitar and electric guitar. 1 Tablatures and chords are parodies/interpretations of the original songs. You may use it for private study, scholarship, research or language learning purposes only