>
 >
Ninja

Ninja Guitar Tabs

Machinae Supremacy - Ninja chords, tabs, tablatures, lyrics

Guitar lessons | Add/correct | Request | Top 50 tabs Artists:  A B C D E F G H I J K L M N O P Q R S T U V W X Y Z 0-9

Ninja Guitar Tabs – Machinae Supremacy

CD, Sheet music, Poster

Do you like Ninja? Share with your friends now
Tabs
-----------------------------------------------------------------------------
                             NINJA – Machinae Supremacy
-----------------------------------------------------------------------------

Tuning: Drop D

Intro – Synth Chords heard as song fades in…
e|----------------------------------------------------------------------------|
B|----------------------------------------------------------------------------|
G|----2-------4~------2---4---4-----------------------------------------------|
D|4---2---2---4~--4---2---2---2----4~~----------------------------------------| 2X
A|4---0---2---2~--4---0---2---2----4~~----------------------------------------|
D|4-------2-------4-------------2--4~~----------------------------------------|
pm.   .   .   .   .   .   .   .    .

Main Riff – Pt. 1 Clean
e|---------------------------------------------------------------------------|
B|-----------10--------------------------------------------------------------|
G|-/11~~9-11----11p9---------------------------------------------------------|
D|------------------h11~-\9p7-9~--7-9-/11-9p7--------------------------------|
A|-------------------------------------------h9~~----------------------------|
D|---------------------------------------------------------------------------|

e|---------------------------------------------------------------------------|
B|-----------10--------------------------------------------------------------|
G|-/11~~9-11----11p9----------9----------------------------------------------|
D|------------------h11~-9h11---9~-7h9/11------------------------------------|
A|----------------------------------------9~~~-------------------------------|
D|---------------------------------------------------------------------------|

Main Riff – Pt. 2 Clean
e|---------------------------------------------------------------------------|
B|-----------10--------------------------------------------------------------|
G|-/11~~9-11----11p9---------------------------------------------------------|
D|------------------h11~-\9p7h9~--7-9/11\9p7---------------------------------|
A|------------------------------------------h9~~-----------------------------|
D|---------------------------------------------------------------------------|

e|---------------------------------------------------------------------------|
B|-----------10--------------------------------------------------------------|
G|-/11~~9-11----11p9----------9----------------------------------------------|
D|------------------h11~-9h11---9~-/11h9\7-----------------------------------|
A|-----------------------------------------9h7p9-----------------------------|
D|---------------------------------------------------------------------------|

Verse 1 followed by main riff pt. 1
e|----------------------------------------------------------------------------|
B|----------------------------------------------------------------------------|
G|----2-------4~------2---4---4-----------------------------------------------|
D|4---2---2---4~--4---2---2---2----4~~----------------------------------------| 1X
A|4---0---2---2~--4---0---2---2----4~~----------------------------------------|
D|4-------2-------4-------------2--4~~----------------------------------------|

Verse 1 again followed by main riff pt. 2

Break
Verse 2 (Verse 1 Chords-notes strummed individ.)
With Main Riffs

Prelude …Basically
e|----------------------------------------------------------------------------|
B|----------------------------------------------------------------------------|
G|-7-77-777-/9-999999------------6-666666-/-----------------------------------|
D|-7-77-777-/9-999999--4-44-444--6-666666-/-----------------------------------| x2
A|-5-55-555-/7-777777--4-44-444--4-444444-/-----------------------------------|
D|---------------------4-44-444-----------------------------------------------|

e|----------------------------------------------------------------------------|
B|----------------------------------------------------------------------------|
G|----------------------------------------------------------11-11-11-11-11-11-|
D|7-77-777-/9-99-999-\7-77-777-/9-99-999--7-77-77--6-66-66--------------------|
A|5-55-555-/7-77-777-\5-55-555-/7-77-777--5-55-55--4-44-44--9--9--9--9--9--9--|
D|----------------------------------------------------------------------------|

Break
Build Up… 2:48
e|---------------------------------------------------------------------------|
B|---------------------------------------------------------------------------|
G|---------------------------------------------------------------------------|
D|-----4---4---4---4---4-----------------------------------------------------|
A|---4---4---4---4---4---4---------------------------------------------------|
D|---------------------------------------------------------------------------|


Chorus 2:50– Heavy Distortion
e|---------------------------------------------------------------------------|
B|---------------------------------------------------------------------------|
G|---------------------------------------------------------------------------|
D|44444444-/77777770-22222222-/999999990-4h6p4\2-----------------------------|
A|44444444-/77777770-22222222-/999999990-------------------------------------|
D|44444444-/77777770-22222222-/999999990-------------------------------------|

e|---------------------------------------------------------------------------|
B|---------------------------------------------------------------------------|
G|---------------------------------------------------------------------------|
D|44444444-/77777770-99999999-99999990-2--4----------------------------------|
A|44444444-/77777770-99999999-99999990-2--4----------------------------------|
D|44444444-/77777770-99999999-99999990-2--4----------------------------------|

Followed by Main Riffs palm muted and on the back pickups –Then With Heavy Distortion

Prelude Again into… 4:07
e|---------------------------------------------------------------------------|
B|---------------------------------------------------------------------------|
G|---------------------------------------------------------------------------|
D|4-4-4-4    -0h2-4-4-4-4    -2----------------------------------------------|
A|4-4-4-4 4x -0h2-4-4-4-4 4x -2----------------------------------------------|
D|4-4-4-4    -0h2-4-4-4-4    -2----------------------------------------------|

| .  palm mute
| /  slide up
| \  slide down
| h  hammer-on
| p  pull-off
| ~  vibrato
| +  harmonic
| x  Mute note
=============================================================================





Comments


Popular Machinae Supremacy tabs & chords
Persona Bass Tabs
All Of My Angels Chords
One Day In The Universe Chords
Skin Chords
Cryosleep Tabs
Flagcarrier Intro Tabs
Rise Of A Digital Nation Tabs
Ronin Tabs
Through The Looking Glass Intro Tabs
Violator Tabs


Song lyrics



↑ Back to top | Tablatures and chords are parodies/interpretations of the original songs. You may use it for private study, scholarship, research or language learning purposes only
© 2014 AZChords.com Contact us | Privacy policy | DMCA | Add/correct tabs | Request tabs | Top 50 tabs