» » »

Machinae Supremacy, Killer Instinct Tabs (ver.1)

Artists:  A B C D E F G H I J K L M N O P Q R S T U V W X Y Z # 

Killer Instinct Tabs (ver.1)

Machinae Supremacy Tabs
 Rating:
4.4/5 (7 votes)
Killer Instinct lessons Tabs too difficult? Try these video lessons and learn fast
                #----------------------------------PLEASE-NOTE---------------------------------#




This is my interpretation of the song, it might have few errors on it, so let me know if 
catch one here or there.

Notation legend:
~ = vibrato
pm = palm mute (the little dots under the lines)
ph = pinch harmonic
b = bend
/ = slide
t = tap
p = pull off
( = tremolo bar down

LISTEN TO THE RECORD as tabs weren't blessed with rhytm marks
-------------------------------------------------------------

Standard tuning: E,A,D,G,B,E

{--------------------------O-O----------------------------------}
{--------------------------O-O----------------------------------}


[INTRO]
|-------------------------------------------------------------|
|-------------------------------------------------------------|
|-9/------------------------------7-7-7-7-7-7-7---------------|
|-9/--2-2-2-2-2-2--5-5-5-5-5-5-5--7-7-7-7-7-7-7-7-7-7-7-7--5--|
|-7/--2-2-2-2-2-2--5-5-5-5-5-5-5--5-5-5-5-5-5-5-7-7-7-7-7--5--|
|-----0-0-0-0-0-0--3-3-3-3-3-3-3----------------5-5-5-5-5--3--|

[REPEAT]

[VERSE]
|------------------------------------------------------------|
|------------------------------------------------------------|
|-9/------------------------------------------------------5--|
|-9/---2-2----2---2----2-2----2---2----2-2----2---2----2--5--|
|-7/---2-2----2---2----2-2----2---2----2-2----2---2----2--3--|
|------0-0----0---0----0-0----0---0----0-0----0---0----0-----|
       . .    .   .    . .    .   .    . .    .   .

|---------------------------------------------------------------|
|---------------------------------------------------------------|
|------------------------------------------------------------5--|
|------------------------------------------------------------5--|
|-2--2-2--2--2-2--3--3-3--3--3-3--5--5-5--5--5-5--7--7-7--7--3--|
|-0--0-0--0--0-0--0--0-0--0--0-0--0--0-0--0--0-0--0--0-0--0-----|
     . .     . .     . .     . .     . .     . .     . .

[CHORUS] x2
|-------------------------------------------------------------|
|-------------------------------------------------------------|
|-9/------------------------------7-7-7-7-7-7-7---------------|
|-9/--2-2-2-2-2-2--5-5-5-5-5-5-5--7-7-7-7-7-7-7-7-7-7-7-7--5--|
|-7/--2-2-2-2-2-2--5-5-5-5-5-5-5--5-5-5-5-5-5-5-7-7-7-7-7--5--|
|-----0-0-0-0-0-0--3-3-3-3-3-3-3----------------5-5-5-5-5--3--|

(Bass doodle)

[INTRO] x2

[VERSE]

[CHORUS] x2

[BRIDGE]
|---------------------------------------------------|
|---------------------------------------------------|
|-5-5-5-5-5-5-5-5--7-7-7-7-7-7------------------9/--|
|-5-5-5-5-5-5-5-5--7-7-7-7-7-7--7-7-7-7-7-7--5--9/--|
|-3-3-3-3-3-3-3-3--5-5-5-5-5-5--7-7-7-7-7-7--5--7/--|
|-------------------------------5-5-5-5-5-5--3------|

|------------------------------------------------------|
|------------------------------------------------------|
|-------------5--7--8---x/-------5-----5--7-7-7-----5--|
|-2--2--2-----5--7--8---x/--2-2--5--2--5--7-7-7-7-5-5--|
|-2--2--2-----3--5--6---x/--2-2--3--2--3--5-5-5-7-5-3--|
|-0--0--0---------------x/--0-0-----0-----------5-3----|
  .  .  .                   . .     .
|----------------------------|
|----------------------------|
|------5-----5--7-7-7--------|
|-2-2--5--2--5--7-7-7-2-2-2--|
|-2-2--3--2--3--5-5-5-2-2-2--|
|-0-0-----0-----------0-0-0--|
  . .     .           . . .
----------------------------|
----------------------------|
------5-----5--7-7-7-----5--|
-2-2--5--2--5--7-7-7-7-5-5--|
-2-2--3--2--3--5-5-5-7-5-3--|
-0-0-----0-----------5-3----|
 . .     .
|-------------------------------|
|-------------------------------|
|------5-----5--7-7-7-------9/--|
|-2-2--5--2--5--7-7-7-2-2-2-9/--|
|-2-2--3--2--3--5-5-5-2-2-2-7/--|
|-0-0-----0-----------0-0-0-----|
  . .     .           . . .

[INTRO]
|-------------------------------------------------------------|
|-------------------------------------------------------------|
|-9/------------------------------7-7-7-7-7-7-7---------------|
|-9/--2-2-2-2-2-2--5-5-5-5-5-5-5--7-7-7-7-7-7-7-7-7-7-7-7--5--|
|-7/--2-2-2-2-2-2--5-5-5-5-5-5-5--5-5-5-5-5-5-5-7-7-7-7-7--5--|
|-----0-0-0-0-0-0--3-3-3-3-3-3-3----------------5-5-5-5-5--3--|

|-----------------------------------------------------------------|
|-----------------------------------------------------------------|
|-9/------------------------------7-7-7-7-7-7-7---------------9/--|
|-9/--2-2-2-2-2-2--5-5-5-5-5-5-5--7-7-7-7-7-7-7-7-7-7-7-7--5--9/--|
|-7/--2-2-2-2-2-2--5-5-5-5-5-5-5--5-5-5-5-5-5-5-7-7-7-7-7--5--7/--|
|-----0-0-0-0-0-0--3-3-3-3-3-3-3----------------5-5-5-5-5--3------|

[VERSE]
|------------------------------------------------------------|
|------------------------------------------------------------|
|-9/------------------------------------------------------5--|
|-9/---2-2----2---2----2-2----2---2----2-2----2---2----2--5--|
|-7/---2-2----2---2----2-2----2---2----2-2----2---2----2--3--|
|------0-0----0---0----0-0----0---0----0-0----0---0----0-----|
       . .    .   .    . .    .   .    . .    .   .
|---------------------------------------------------------------|
|---------------------------------------------------------------|
|-------------------------------------------------9/------------|
|-------------------------------------------------9/------------|
|-2--2-2--2--2-2--3--3-3--3--3-3--5--5-5--5--5-5--7/------------|
|-0--0-0--0--0-0--0--0-0--0--0-0--0--0-0--0--0-0----------------|
     . .     . .     . .     . .     . .     .

[CHORUS] x4

[OUTRO]
|---------------------------------------------------|
|---------------------------------------------------|
|-5-5-5-5-5-5-5-5--7-7-7-7-7-7------------------9/--|
|-5-5-5-5-5-5-5-5--7-7-7-7-7-7--7-7-7-7-7-7--5--9/--|
|-3-3-3-3-3-3-3-3--5-5-5-5-5-5--7-7-7-7-7-7--5--7/--|
|-------------------------------5-5-5-5-5-5--3------|

|----------|
|----------|
|----------|
|-4----2(--|
|-4----2(--|
|-2----0(--|
            
Submit corrections

comments powered by Disqus
↑ Back to top | Machinae Supremacy Tabs for Killer Instinct. Lyrics for acoustic guitar and electric guitar. Tablatures and chords are parodies/interpretations of the original songs. You may use it for private study, scholarship, research or language learning purposes only