» » »

Dark City Tabs (ver.1)

Artists:  A B C D E F G H I J K L M N O P Q R S T U V W X Y Z # 

Dark City Tabs (ver.1)

Machinae Supremacy
Rating:
4/5 (2 votes)

Hard to play? Try these video lessons and learn fast.
                (Intro)
------------------------------------------------------------------------------
                                 DARK CITY - Machinae Supremacy
------------------------------------------------------------------------------

Tuning: Drop D (DADGBe)

SID Intro (for guitar) [0:00]
e|---17~---17-----14~--14----16~------------17-14-----|
B|-----------15-14---------14----14-------17-----14---|
G|-----------------------16---------14-16-------------|
D|-16-------------------------------------------------|
A|----------------------------------------------------|
D|----------------------------------------------------| x2

Actual Guitar [0:10]     [0:15]            [0:20]
e|----------------------|----------------|----------------------|
B|----------------------|----------------|----------------------|
G|----------------------|----------------|----------------------|
D|-4--------------------|-4--4-----------|-(12)\\\\\\\\\\\\\\---|
A|-4--------------------|-4--4-----------|-(12)\\\\\\\\\\\\\\---|
D|-4-(Hold...)----------|-4--4-(Hold...)-|-(12)\\\\\\\\\\\\\\---|

   [0:21]
e|----------------------------------------------|
B|----------------------------------------------|
G|----------------------------------------------|
D|-4-4-44-4--0-0-00-0--2-2-22-2-2-22---9-11-9-7-|
A|-4-4-44-4--0-0-00-0--2-2-22-2-2-22---9-11-9-7-|
D|-4-4-44-4--0-0-00-0--2-2-22-2-2-22---9-11-9-7-|

   [0:26]
e|----------------------------------------------|
B|----------------------------------------------|
G|----------------------------------------------|
D|-4-4-44-4--0-0-00-0--9-9-99-9-9-99---9-11-9-7-|
A|-4-4-44-4--0-0-00-0--9-9-99-9-9-99---9-11-9-7-|
D|-4-4-44-4--0-0-00-0--9-9-99-9-9-99---9-11-9-7-|

  [0:32]
e|----------------------------------------------|
B|----------------------------------------------|
G|----------------------------------------------|
D|-4-4-44-4--0-0-00-0--2-2-22-2-2-22---9-11-9-7-|
A|-4-4-44-4--0-0-00-0--2-2-22-2-2-22---9-11-9-7-|
D|-4-4-44-4--0-0-00-0--2-2-22-2-2-22---9-11-9-7-|

   [0:37]
e|--------------------------------------------------------|
B|--------------------------------------------------------|
G|--------------------------------------------------------|
D|-4-4-44-4--0-0-00-0--9-9-99-9/11-11-1111-11---11-11-9-7-|
A|-4-4-44-4--0-0-00-0--9-9-99-9/11-11-1111-11---11-11-9-7-|
D|-4-4-44-4--0-0-00-0--9-9-99-9/11-11-1111-11---11-11-9-7-|
(those are elevens, not ones, by the way ;)


Verse 1: (Not sure, but I’ll give the first part a shot. The palm muted part is probably 
right, but its the best i’ve got.)
   [0:42]
e|------------------------------------------------|
B|------------------------------------------------|
G|------------------------------------------------|
D|-4-4-402-4-4-402-4-4-402-4-4-4-4----------------|
A|-4-4-402-4-4-402-4-4-402-4-4-4-4----2-4---2-4-0-|
D|-4-4-402-4-4-402-4-4-402-4-4-4-4--4-----4-------|
p.m.                                            . . . . . . .

   [0:48]
e|----------------------------------------|
B|----------------------------------------|
G|----------------------------------------|
D|-4-4-402-4-4-402-4-4-402-0-02-2-4-------|
A|-4-4-402-4-4-402-4-4-402-0-02-2-4--7*~~-|
D|-4-4-402-4-4-402-4-4-402-0-02-2-4-------|

And the it goes all palm-muted and i dunno :(

But hope the intro helps!! :D

| /  slide up
| \  slide down
| h  hammer-on
| p  pull-off
| ~  vibrato
| *  harmonic
| ^  half bend
| ^^ full bend
| x  Mute note
==============================================================================
            
Hard to play? Try these video lessons and learn fast. | Correct




comments powered by Disqus
↑ Back to top | Tablatures and chords are parodies/interpretations of the original songs. You may use it for private study, scholarship, research or language learning purposes only