» » »

Machinae Supremacy, Cryosleep Tabs (ver.1)

Artists:  A B C D E F G H I J K L M N O P Q R S T U V W X Y Z # 

Cryosleep Tabs (ver.1)

Machinae Supremacy Tabs
 Rating:
4/5 (4 votes)
Cryosleep lessons Tabs too difficult? Try these video lessons and learn fast
                [h]=Hammer on
[p]=lift up and down
[w]=move string up and down
All of these are BEFORE the note!

[Guitar starts at 1:02]

x:---7-7-8-8-7-[h]9-10-|
x:---------------------|
x:---------------------|
x:---7-7-8-8-7-[h]9-10-|
x:---------------------|
x:---------------------|

[1:10]

x:------5-5-6-6-4-7-0--|
x:------0-0-0-0-0-0-0--|
x:------5-5-6-6-4-7-0--|
x:---------------------|
x:---------------------|
x:---------------------|

[1:14]

x:------7-7-8-8-7-9-10-|
x:---------------------|
x:---------------------|
x:------7-7-8-8-7-9-0--|
x:---------------------|
x:---------------------|

[1:32]

x:---------------------|
x:---------------------|
x:---------------------|
x:-3-2-1-3-2-2---------|
x:-3-2-1-3-2-2---------|
x:------------0-4-3-5-1|

[1:59]

x:8--------------------|
x:-9-------------------|
x:-9-------------------|
x:---------------------|
x:---------------------|
x:---------------------|

[2:13]

x:--7-[h]8-[h]9--------|
x:---------------------|
x:---------------------|
x:--7-[h]8-[h]9--------|
x:---------------------|
x:---------------------|

[2:27]

x:---7-7-8-8-7-[h]9-10-|
x:---------------------|
x:---------------------|
x:---7-7-8-8-7-[h]9-10-|
x:---------------------|
x:---------------------|

[2:33]

x:------5-5-6-6-4-7-0--|
x:------0-0-0-0-0-0-0--|
x:------5-5-6-6-4-7-0--|
x:---------------------|
x:---------------------|
x:---------------------|

[2:37]

x:---7-7-8-8-7-[h]9-10-|
x:---------------------|
x:---------------------|
x:---7-7-8-8-7-[h]9-10-|
x:---------------------|
x:---------------------|

[2:48]

x:------5-5-6-6-4-7-0--|
x:------0-0-0-0-0-0-0--|
x:------5-5-6-6-4-7-0--|
x:---------------------|
x:---------------------|
x:---------------------|

[2:51]

x:---7-7-8-8-7-[h]9-10-|
x:---------------------|
x:---------------------|
x:---7-7-8-8-7-[h]9-10-|
x:---------------------|
x:---------------------|

[2:55]
x:-----------------------------------|
x:-----------------------------------|
x:-----------------------------------|
x:-----------------------------------|
x:-9-------9-8-7-6-5-4---------------|
x:---[h]10-------------10-11-10--20--|

[3:12]

x:1-0-1-0-1-1-1-1-1-[h]2-1-0-1-0-1-0-0-0-1-1-1-1-1-1-1-1-0|
x:--------------------------------------------------------|
x:--------------------------------------------------------|
x:--------------------------------------------------------|
x:--------------------------------------------------------|
x:--------------------------------------------------------|

[3:39]

x:--------------------------------|
x:--------------------------------|
x:--------------------------------|
x:--------------------------------|
x:--------------------------------|
x:9---8---7---6---5-8-7--5--6--8-9|

[3:59]

x:---7-7-8-8-7-[h]9-10-|
x:---------------------|
x:---------------------|
x:---7-7-8-8-7-[h]9-10-|
x:---------------------|
x:---------------------|

[4:07 END]

MAY not sound right, meant to be played on an explorer.
            
Submit corrections

comments powered by Disqus
↑ Back to top | Machinae Supremacy Tabs for Cryosleep. Lyrics for acoustic guitar and electric guitar. Tablatures and chords are parodies/interpretations of the original songs. You may use it for private study, scholarship, research or language learning purposes only