» » »

Dredio Bass tabs (ver.1)

Artists:  A B C D E F G H I J K L M N O P Q R S T U V W X Y Z # 

Dredio Bass tabs (ver.1)

Mac Dre
Rating:
0/5 (0 votes)

Hard to play? Try these video lessons and learn fast.
                MAC DRE R.I.P. YAY area YADADAMEAN!

G------------------|------------|
D----------------X2|------------|
a-2~-3~------------|-3-2-0h2----|
E------------------|---------3-2|

E---------------------------------------------|
D---------------------------------------------|
A---2-3232-----0-2020--------0-0-----0-2-0-2--| X2
E-0---------2----------32023--3-3--2----------|

E--------------------------|
D--------------------------|X2
A--------------------------|
G-0--0-0-0h0---------------|

E---------------------------------------------|
D---------------------------------------------| X6
A---2-3232-----0-2020--------0-0-----0-2-0-2--|
E-0---------2----------32023--3-3--2----------|

E--------------------------|
D--------------------------|X2
A--------------------------|
G-0--0-0-0h0---------------|

E---------------------------------------------|
D---------------------------------------------| X3
A---2-3232-----0-2020--------0-0-----0-2-0-2--|
E-0---------2----------32023--3-3--2----------|

E--------------------------|
D--------------------------|X2
A--------------------------|
G-0--0-0-0h0---------------|

E---------------------------------------------|
D---------------------------------------------| X5
A---2-3232-----0-2020--------0-0-----0-2-0-2--|
E-0---------2----------32023--3-3--2----------|

E------------------|
D------------------|
a-2~-3~------------|
E------------------|
            
Hard to play? Try these video lessons and learn fast. | Correct




comments powered by Disqus
↑ Back to top | Tablatures and chords are parodies/interpretations of the original songs. You may use it for private study, scholarship, research or language learning purposes only