» » »

Macc Lads, Blackpool Tabs (ver.1)

Artists:  A B C D E F G H I J K L M N O P Q R S T U V W X Y Z # 

Blackpool Tabs (ver.1)

Macc Lads Tabs
Rating:
0/5 (0 votes)
Blackpool lessons Tabs too difficult? Try these video lessons and learn fast
                This tab may require you to do some string bending, hammering, palm muting, pick
or other guitar techniques you will be able to figure out by listening to the song. You may
have to play a chord shown more than once in sequence. This tab are in standard guitar tuning.

You can find more great punk/oi tabs on my site:
BLACKJACKAL.PHPNET.US

Intro and Outro (1st part):

e|-----------------------------------------------------------------|
B|-----------------------------------------------------------------|
G|----------------10-9---------------------------------------------|
D|---10-8----8-10------10-8-10-12---10-8-----8-10-12-10------------|
A|--------10------------------------------10------------10-8-10-13-|
E|-8------------------------------8--------------------------------|

Intro and Outro (second part):

e|--------------------------|
B|--------------------------|
G|----------------10-9------|
D|---10-8----8-10------10-5-|
A|--------10----------------|
E|-8------------------------|

Verse:

e|---------3-1-0---------|
B|---------3-1-1---------|
G|-------0---------------|
D|-5-------------5-------|
A|-3-5-3---------3-5-3-5-|
E|---3-1-----------3-1-3-|

Chorus:

e|---------------|
B|---------------|
G|---5---7---5-7-|
D|-5-3-5-5-5-3-5-|
A|-3---3---3-----|
E|---------------|

Solo:

e|-------------------------------------|
B|-13-10-13-12-13-10-12-13-15-13-12-13-|
G|-12-10-12-12-12-10-12-12-12-12-12-12-|
D|-------------------------------------|
A|-------------------------------------|
E|-------------------------------------|


Lyrics:

One day after closing I was lying on me nest
When Stez shouts "get yer bags on, come on outside"
So I grabbed me stripey tank-top, I had beer stains on me vest
An' I said "best get some cans in, it's a long ride"
Well we drove along the M6, chuckin cans at other folk
An' stopped at all the services that took us
Picked up some fit hitch-hikers an' we told 'em filthy jokes
An' piled them in the back seet to f**k us

We're going down Blackpool, alright
We're going down Blackpool, fer a pint
We're going down Blackpool, alight
To see the lights

Mutley's in the drivin' seat, Stez Styx is in the front
An' we're going down to Blackpool to up some f**kin' cunt
An' Peter's in the back seat an' his crack is goin' "gerrit"
He's got his finger up her like a ferret

Now ten miles outside Blackpool and we had some real bad luck
Mutley shouts "O f**k, we've got a flat"
And now Peter chucked the jack at some cunt ten mile down the road
So we made him go an' get the f**ker back
THE TWAT


You can find more great punk/oi tabs on my site:
BLACKJACKAL.PHPNET.US
            
Submit corrections

comments powered by Disqus
↑ Back to top | Macc Lads Tabs for Blackpool. Lyrics for acoustic guitar and electric guitar. Tablatures and chords are parodies/interpretations of the original songs. You may use it for private study, scholarship, research or language learning purposes only