» » »

Macabre, Jack The Ripper Tabs (ver.1)

Artists:  A B C D E F G H I J K L M N O P Q R S T U V W X Y Z # 

Jack The Ripper Tabs (ver.1)

Macabre Tabs
 Rating:
4.2/5 (5 votes)
Jack The Ripper lessons Tabs too difficult? Try these video lessons and learn fast
                Band:  Macabre

Copyright (c)  Decomposed Records 2003
Version 1.0 - 5.11.2009



.  - palm mute           /  - slide up to
\  - slide down to       ~  - vibrato
h  - hammer on           b  - Bend
p  - pull off            Suffixes for bend
t  - tap                 f  - full bend    h - half bend
ph - pinched harmonic    q  - quarter bend t - tap bend
*  - see comment         ^  - Hold bend    r release bend
x  - Stuccatto           ~  - vibrato bend
,  - slight palm mute    () - ghost note, sustained note
"  - tremolo note        <> - Trill

Tuning B E A D G B E
Standard Seven String

Riff A1 x2
*Occasionally don't palm mute a high note.
 This should come naturally with alternate picking.
|----------------------------------------------------------|
|-----------------------1-----1-----1-----1----------------|
|-----2-----2-----2---2-----2-----2-----2-------2-----2----|
|---2-----2-----0---2-----3-----2-----0-------0-----0------|
|-0-----3-----2-----------------------------3-----2--------|
|----------------------------------------------------------|
|----------------------------------------------------------|
  . . . . . . . . . . . . . . . . . . . . . . . . . . .

Riff A2 x2
*Let all of the notes ring
|----------------------------------------------------------|
|-----------------------1-----1-----1-----1----------------|
|-----2-----2-----2---2-----2-----2-----2-------2-----2----|
|---2-----2-----0---2-----3-----2-----0-------0-----0------|
|-0-----3-----2-----------------------------3-----2--------|
|----------------------------------------------------------|
|----------------------------------------------------------|

Riff A1 x2

Riff B x2
*Let all of the notes ring
|----------------------------------------------------------|
|----------------------------------------------------------|
|-----------------------0-----0-----0-----0----------------|
|-----2-----2-----2---2-----2-----2-----2-------2-----2----|
|---2-----2-----0---2-----3-----2-----0-------0-----0------|
|-0-----3-----2-----------------------------3-----2--------|
|----------------------------------------------------------|

Riff A2 x2
Riff A1 x2 * final note played is 0, not 2
Riff B  x2
Riff A2 x2

Riff C x4                             |1,3          |2,4
|-------------------------------------|-------------|------------------|
|-------------------------------------|-------------|------------------|
|-------------------------------------|-------------|------------------|
|-------------------------------------|-------------|------------------|
|-------------------------------------|-------------|------------------|
|-5---5-6-5-6-5---5-6-5-6-5---5-6-5-6-|-8-6-5-6-5---|-5h6p5---5h6p5----|
|-------------------------------------|-----------8-|-------8-------8--|

Riff D x2
|--------------------------------------------------|
|--------------------------------------------------|
|--------------------------------------------------|
|--------------------------------------------------|
|--------------------------------------------------|
|-5-5-5-6-5-6-5-5-5-6-5-6-5-5-5-6-5-6-8-6-5-6-5----|
|-----------------------------------------------8--|
  . . . . . . . . . . . . . . . . . . . . . .   .

Riff E x2
|--------------------------------------------------|
|--------------------------------------------------|
|--------------------------------------------------|
|--------------------------------------------------|
|--------------------------------------------------|
|--------------------------------------------------|
|-5-555-6-5-6-5-555-6-5-6-5-555-6-5-6-8-6-5-6-5-3--|
  . ... . . . . ... . . . . ... . . . . . . . . .

Riff F x4                             |1,3          |2,4
|-------------------------------------|-------------|--------------|
|-------------------------------------|-------------|--------------|
|-------------------------------------|-------------|--------------|
|-------------------------------------|-------------|--------------|
|-7---7-8-7-8-7---7-8-7-8-7---7-8-7-8-|-108-7-8-7-5-|-7-8-7-8-7-8--|
|-5---5-6-5-6-5---5-6-5-6-5---5-6-5-6-|-8-6-5-6-5-3-|-5-6-5-6-5-6--|
|-------------------------------------|-------------|--------------|

Riff G x4                                             |2,4
|-----------------------------------------------------|----------|
|-----------------------------------------------------|----------|
|-----------------------------------------------------|----------|
|-----------------------------------------------------|----------|
|-----------------------5--------7----8-7-5---7-5-----|-5--------|
|-5----5-7-8---7----7-8-----8---------------8-----8-7-|---8-7-4--|
|-----------------------------------------------------|----------|

Riff H x2
|---------------------------------------------------|
|---------------------------------------------------|
|---------------------------------------------------|
|---------------------------------------------------|
|---------------------------------------------------|
|-5-----6-5-6-5-----6-5-6-5-----6-5-6-8-6-5-6-5-----|
|-----------------------------------------------8---|

Riff I x2
|---------------------------------------------------|
|---------------------------------------------------|
|---------------------------------------------------|
|---------------------------------------------------|
|---------------------------------------------------|
|---------------------------------------------------|
|-5-----6-5-6-5-----6-5-6-5-----6-5-6-8-6-5-6-5-3---|

Riff H x2

Passage
|x3           |x3                       |x1
|-------------|-------------------------|-----------------------|
|-------------|-------------------------|-----------------------|
|-------------|-------------------------|-----------------------|
|-------------|-------------------------|-----------------------|
|-------------|-------------------------|-----------------------|
|-8-6-5-6-5---|-8-6-5-6-5---5-----------|-------5-6-8-6-5---5---|
|-----------8-|-----------8---8-6-8-6-5-|-5-6-8-----------8-----|
                . . . . . . . . . . . .   . . . .

|x3                       |x1
|-------------------------|-----------------------|
|-------------------------|-----------------------|
|-------------------------|-----------------------|
|-------------------------|-----------------------|
|-------------------------|-----------------------|
|-8-6-5-6-5---5-----------|-------5-6-8-6-5---5---|
|-----------8---8-6-8-6-5-|-5-6-8-----------8-----|


Riff J x4                                             |2,4
|-----------------------------------------------------|----------|
|-----------------------------------------------------|----------|
|-----------------------------------------------------|----------|
|-----------------------------------------------------|----------|
|-----------------------------------------------------|----------|
|-----------------------5--------7----8-7-5---7-5-----|-5--------|
|-5----5-7-8---7----7-8-----8---------------8-----8-7-|---8-7-4--|

Riff K x4
|-------------------------------------------------------------------
|-------------------------------------------------------------------
|-------------------------------------------------------------------
|-------------------------------------------------------------------
|-------------------------------------------------------------------
|-5---5-6---5-6-5-6-5-6-5---5-6---5-6-5-6-5-6-5---5-6---5-6-5-6-5-6-
|-------------------------------------------------------------------

 -------------------------|
 -------------------------|
 -------------------------|
 -------------------------|
 -------------------------|
 -8-6-5-6-5---5-----------|
 -----------8---8-6-8-6-5-|

Outro x1
|-------------------------------------------------------------------|
|-------------------------------------------------------------------|
|-------------------------------------------------------------------|
|-------------------------------------------------------------------|
|-------------------------------------------------------------------|
|-8-6-5-6-5---5-----------8-6-5-6-5---5-----------------------------|
|-----------8---8-6-8-6-5-----------8---8-6-8-6-5-6-5-3-5-3-2-3-----|
                                            . . . . . . . . . .


END
            
Submit corrections

comments powered by Disqus
↑ Back to top | Macabre Tabs for Jack The Ripper. Lyrics for acoustic guitar and electric guitar. Tablatures and chords are parodies/interpretations of the original songs. You may use it for private study, scholarship, research or language learning purposes only