» » »

Macabre, Drill Bit Lobotomy Tabs (ver.1)

Artists:  A B C D E F G H I J K L M N O P Q R S T U V W X Y Z # 

Drill Bit Lobotomy Tabs (ver.1)

Macabre Tabs
Rating:
0/5 (0 votes)
Drill Bit Lobotomy lessons Tabs too difficult? Try these video lessons and learn fast
                
NOTE: This is pretty much right, sounds good anyway
      You can play it differently, maybe easyier,
      if it isn't already easy enough, but this is
      how I like to play it. Enjoy

Tuning: Your guitar has to be tuned like a 7-String with the 6th string
(or 7th depending on your Axe), tuned to B, then follows E, A, D, F#, B (+E for 7-S)
Most Songs on dahmer have this tuning, I make up a lot of my work in this tuning
And it sounds great!


Starts with Drum Roll,

Riff A     (This sh*t Is Played Pretty Fast)

|-------------------------------------------------------|
|-------------------------------------------------------|
|-------------------------------------------------------|
|-0--12-12-12-12-12-12-12-0-13-13-13-13-13-13-0---------|
|-------------------------------------------------------|\
|-------------------------------------------------------| \
                                                                             8x
|-------------------------------------------------------| /
|-------------------------------------------------------|/
|------------------------------------------13~~~--------|
|--15-15-15-15-15-15-0-17-17-17-17-17-17-0--------------|
|-------------------------------------------------------|
|-------------------------------------------------------|


Chorus
|-------------------------------------------------------|
|-------------------------------------------------------|
|--9----5-----------------------------------------------| 4x
|--9----5----8----5-------------------------------------|
|--7----3----8----5-------------------------------------|
|--0---------6----3-------------------------------------|




Now Play "Riff 1" another 8x
Back to "Chorus" for 4x
Then "Riff 1" for 4x
& "Chorus" for another 4x
Finish Off by Letting the last
Chord in the Final Time
You Play The Chorus Ring 2 Fade.
            
Submit corrections

comments powered by Disqus
↑ Back to top | Macabre Tabs for Drill Bit Lobotomy. Lyrics for acoustic guitar and electric guitar. Tablatures and chords are parodies/interpretations of the original songs. You may use it for private study, scholarship, research or language learning purposes only