» » »

Macabre, Do The Dahmer Tabs (ver.1)

Artists:  A B C D E F G H I J K L M N O P Q R S T U V W X Y Z # 

Do The Dahmer Tabs (ver.1)

Macabre Tabs
 Rating:
4/5 (4 votes)
Do The Dahmer lessons Tabs too difficult? Try these video lessons and learn fast
                Band:  Macabre

Copyright (c)  Decomposed Records 2000
Version 1.0 - 26.4.2010



.  - palm mute           /  - slide up to
\  - slide down to       ~  - vibrato
h  - hammer on           b  - Bend
p  - pull off            Suffixes for bend
t  - tap                 f  - full bend    h - half bend
ph - pinched harmonic    q  - quarter bend t - tap bend
*  - see comment         ^  - Hold bend    r release bend
x  - Stuccatto           ~  - vibrato bend
,  - slight palm mute    () - ghost note, sustained note
"  - tremolo note        <> - Trill

Tuning B E A D G B E
Standard Seven String


Section 1 x2
  |A x2
  |---------------------------------|
  |---------------------------------|
  |---------------------------------|
  |---------------------------------|
  |---------------------------------|
  |-----1-1-------------1-1-4-4-1-1-|
  |-3-3-----3-3-1-1-3-3-------------|
    . . . . . . . . . . . . . . . .

  |B x1
  |---------------------------------|
  |---------------------------------|
  |---------------------------------|
  |---------------------------------|
  |-----1-1-------------1-1-4-4-1-1-|
  |-3-3-----3-3-1-1-3-3-------------|
  |---------------------------------|
    . . . . . . . . . . . . . . . .

   A x1

  |C x1
  |---------------------------------|
  |---------------------------------|
  |---------------------------------|
  |---------------------------------|
  |-----3-3-6-6-3-3-----1-1-4-4-1-1-|
  |-5-5-------------3-3-------------|
  |---------------------------------|
    . . . . . . . . . . . . . . . .

  |D x1
  |---------------------------------|
  |---------------------------------|
  |---------------------------------|
  |---------------------------------|
  |---------------------------------|
  |-----1-1-----------4-4-4-4-4-4-4-|
  |-3-3-----3-3-1-1-3---------------|
    . . . . . . . . . . . . . . . .

Section 2 x2 (No palm mutes 2nd time)
  |E x2
  |---------------------------------|
  |---------------------------------|
  |---------------------------------|
  |---------------------------------|
  |---------------------------------|
  |---------------------------------|
  |-3-3-6-6-3-3-6-6-3-3-6-6-3-3-6-6-|
    . . . . . . . . . . . . . . . .

  |F x1
  |---------------------------------|
  |---------------------------------|
  |---------------------------------|
  |---------------------------------|
  |---------------------------------|
  |-3-3-6-6-3-3-6-6-3-3-6-6-3-3-6-6-|
  |---------------------------------|
    . . . . . . . . . . . . . . . .

   E x1
   C x1
   D x1

Section 3 x2
  |G x2
  |---------------------------------|
  |---------------------------------|
  |---------------------------------|
  |---------------------------------|
  |-5-----------------6-6-6-6-6-6-6-|
  |-5-----------------4-4-4-4-4-4-4-|
  |-3-------------------------------|

  |H x1
  |---------------------------------|
  |---------------------------------|
  |---------------------------------|
  |-5-------------------------------|
  |-5-----------------6-6-6-6-6-6-6-|
  |-3-----------------4-4-4-4-4-4-4-|
  |---------------------------------|

   G x1

  |I x1
  |---------------------------------|
  |---------------------------------|
  |---------------------------------|
  |-7--------------5----------------|
  |-7--------------5----------------|
  |-5--------------3----------------|
  |---------------------------------|

   G x1

Section 1 x2 (No palm mutes)

End x1
  |---------|
  |---------|
  |---------|
  |---------|
  |---------|
  |-5-------|
  |-3-------|



END
            
Submit corrections

comments powered by Disqus
↑ Back to top | Macabre Tabs for Do The Dahmer. Lyrics for acoustic guitar and electric guitar. Tablatures and chords are parodies/interpretations of the original songs. You may use it for private study, scholarship, research or language learning purposes only