» » »

Macabre, Dorthea's Dead Folks Home Tabs (ver.1)

Artists:  A B C D E F G H I J K L M N O P Q R S T U V W X Y Z # 

Dorthea's Dead Folks Home Tabs (ver.1)

Macabre Tabs
 Rating:
4/5 (4 votes)
Dorthea's Dead Folks Home lessons Tabs too difficult? Try these video lessons and learn fast
                -------------------------------------------------------------------------------
-------------------------------------------------------------------------------

Tuning: Standard E-B-G-D-A-E

e|------------|
B|------------|
G|------------|
D|------------|
A|-4--4--4----|
E|-2--2--2----|

e|--------------------------------------------|
B|--------------------------------------------|
G|--------------------------------------------|
D|-4-4-4-5---4-4-4-5---4-4-4-5-5-5-5-4-2-4----|
A|-2-2-2-3-4-2-2-2-3-4-2-2-2-3-3-3-3-2-0-2--4-|
E|---------2---------2----------------------2-|

e|-------------------------------------------|
B|-------------------------------------------|
G|-------------------------------------------|
D|-4-4-4-5---4-4-4-5---4-4-4-5-5-5-5-4-2-4---|
A|-2-2-2-3-4-2-2-2-3-4-2-2-2-3-3-3-3-2-0-2---|
E|---------2---------2-----------------------|

e|------------------------------------------------------|
B|------------------------------------------------------|
G|------------------------------------------------------|
D|---9-9-9-10---9-9-9-10---9-9-9-10-10-10-10-9-7-9------|
A|-9-7-7-7--8-9-7-7-7--8-9-7-7-7--8--8--8--8-7-5-7------|
E|-7----------7----------7------------------------------|

e|-------------------------------------------|
B|-------------------------------------------|
G|-------------------------------------------|
D|-4-4-4-5---4-4-4-5---4-4-4-5-5-5-5-4-2-4---|
A|-2-2-2-3-4-2-2-2-3-4-2-2-2-3-3-3-3-2-0-2---|
E|---------2---------2-----------------------|

e|-------------------------------------------------|
B|-------------------------------------------------|
G|-------------------------------------------------|
D|-4-----------------------4-----------------------|
A|-2-222-3-2-0-4-----------2-222-3-2-0-4-----------|
E|-------------2-222-3-2-0-------------2-222-3-2-0-|
     xxx         xxx         xxx         xxx

e|-------------------------------------------------|
B|-------------------------------------------------|
G|-------------------------------------------------|
D|-4-----------------------------------------------|
A|-2-222-3-2-0-4-----------4-----------4-----------|
E|-------------2-222-3-2-0-2-222-3-2-0-2-222-3-2-0-|
     xxx         xxx         xxx         xxx

e|-------------------------------------------------|
B|-------------------------------------------------|
G|-------------------------------------------------|
D|-4-----------------------4-----------------------|
A|-2-222-3/5\3-4-----------2-222-3-2-0-4-----------|
E|-------------2-222-3-2-0-------------2-222-3-2-0-|
     xxx         xxx         xxx         xxx

e|-----------------------------------------------------|
B|-----------------------------------------------------|
G|-----------------------------------------------------|
D|-4---------------------------------------------------|
A|-2-222-3-2-0-4-----------4-----------4-----------4\\-|
E|-------------2-222-3-2-0-2-222-3-2-0-2-222-3-2-0-2\\-|
     xxx         xxx         xxx         xxx

e|------------------|
B|------------------|
G|------------------|
D|------------------|
A|-4--4--4--4--4----|
E|-2--2--2--2--2----|

e|--------------------------------------------|
B|--------------------------------------------|
G|--------------------------------------------|
D|-4-4-4-5---4-4-4-5---4-4-4-5-5-5-5-4-2-4----|
A|-2-2-2-3-4-2-2-2-3-4-2-2-2-3-3-3-3-2-0-2--4-|
E|---------2---------2----------------------2-|

e|-------------------------------------------|
B|-------------------------------------------|
G|-------------------------------------------|
D|-4-4-4-5---4-4-4-5---4-4-4-5-5-5-5-4-2-4---|
A|-2-2-2-3-4-2-2-2-3-4-2-2-2-3-3-3-3-2-0-2---|
E|---------2---------2-----------------------|

e|------------------------------------------------------|
B|------------------------------------------------------|
G|------------------------------------------------------|
D|---9-9-9-10---9-9-9-10---9-9-9-10-10-10-10-9-7-9------|
A|-9-7-7-7--8-9-7-7-7--8-9-7-7-7--8--8--8--8-7-5-7--4---|
E|-7----------7----------7--------------------------2---|

e|-------------------------------------------|
B|-------------------------------------------|
G|-------------------------------------------|
D|-4-4-4-5---4-4-4-5---4-4-4-5-5-5-5-4-2-4\\-|
A|-2-2-2-3-4-2-2-2-3-4-2-2-2-3-3-3-3-2-0-2\\-|
E|---------2---------2-----------------------|

| /  slide up
| \  slide down
| h  hammer-on
| p  pull-off
| ~  vibrato
| +  harmonic
| x  Mute note
            
Submit corrections

comments powered by Disqus
↑ Back to top | Macabre Tabs for Dorthea's Dead Folks Home. Lyrics for acoustic guitar and electric guitar. Tablatures and chords are parodies/interpretations of the original songs. You may use it for private study, scholarship, research or language learning purposes only