» » »

Macabre, Diary Of Torture Tabs (ver.1)

Artists:  A B C D E F G H I J K L M N O P Q R S T U V W X Y Z # 

Diary Of Torture Tabs (ver.1)

Macabre Tabs
Rating:
0/5 (0 votes)
Diary Of Torture lessons Tabs too difficult? Try these video lessons and learn fast
                
Tuning: Standard E-B-G-D-A-E

     Intro
e|--------------------------|
B|--------------------------|
G|-4------5------6------5---|
D|-4------5------6------5---|
A|-2------3------4------3---|
E|--------------------------|

e|--------------------------|
B|--------------------------|
G|-4------5------6------7---|
D|-4------5------6------7---|
A|-2------3------4------5---|
E|--------------------------|

     Part I (Palm Mute entire part) - Play 3 times
e|---------------------------------------------------------------------------|
B|---------------------------------------------------------------------------|
G|---------------------------------------------------------------------------|
D|-9-9-9-9-9-9-9-9-10-10-10-10-10-10-10-10-11-11-11-11-11-11-11-11-----------|
A|-9-9-9-9-9-9-9-9-10-10-10-10-10-10-10-10-11-11-11-11-11-11-11-11-----------|
E|-7-7-7-7-7-7-7-7--8--8--8--8--8--8--8--8--9--9--9--9--9--9--9--9-----------|

e|--------------------------|
B|--------------------------|
G|--------------------------|
D|-10-10-10-10-10-10-10-10--|
A|-10-10-10-10-10-10-10-10--|
E|--8--8--8--8--8--8--8--8--|

e|---------------------------------------------------------------------------|
B|---------------------------------------------------------------------------|
G|---------------------------------------------------------------------------|
D|-9-9-9-9-9-9-9-9-10-10-10-10-10-10-10-10-11-11-11-11-11-11-11-11-----------|
A|-9-9-9-9-9-9-9-9-10-10-10-10-10-10-10-10-11-11-11-11-11-11-11-11-----------|
E|-7-7-7-7-7-7-7-7--8--8--8--8--8--8--8--8--9--9--9--9--9--9--9--9-----------|

e|--------------------------|
B|--------------------------|
G|--------------------------|
D|-12-12-12-12-12-12-12-12--|
A|-12-12-12-12-12-12-12-12--|
E|-10-10-10-10-10-10-10-10--|

     Chorus
e|------------------------------------------------|
B|------------------------------------------------|
G|------------------------------------------------|
D|------------------------------------------------|
A|-7-7-7-------7-7-7------------------------------|
E|-------7-7-7-------7-7-7--7--8-8-8-8h10p8-7-----|

e|------------------------------------------|
B|------------------------------------------|
G|------------------------------------------|
D|------------------------------------------|
A|--------------------------------------2---|
E|-7-5-5-5-5h7p5-3-3-3-3h5p3-2--2-2-2-2-----|

e|------------------------------------------------|
B|------------------------------------------------|
G|------------------------------------------------|
D|------------------------------------------------|
A|-7-7-7-------7-7-7------------------------------|
E|-------7-7-7-------7-7-7--7--8-8-8-8h10p8-7-----|

e|----------------------------------------|
B|----------------------------------------|
G|----------------------------------------|
D|----------------------------------------|
A|--------------------------------------0-|
E|-7-5-5-5-5h7p5-3-3-3-3h5p3-2--2-2-2-2---|

     Bridge
e|----------------------------------------------|
B|----------------------------------------------|
G|----------------------------------------------|
D|----------------------------------------------|
A|-------------0-----------0--------------------|
E|-0h3p2h3p2p0--h3p2h3p2p0--h3p2h3p2p0-0h1h3p0--|

e|----------------------------------------------|
B|----------------------------------------------|
G|----------------------------------------------|
D|----------------------------------------------|
A|-------------0-----------0--------------------|
E|-0h3p2h3p2p0--h3p2h3p2p0--h3p2h3p2p0-0h1h3p0--|

e|----------------------------------------------|
B|----------------------------------------------|
G|----------------------------------------------|
D|----------------------------------------------|
A|-0---------0-5---------0-5---------0-0-----0--|
E|---8p7h8p7-----8p7h8p7-----8p7h8p7-----7h8----|

e|----------------------------------------------|
B|----------------------------------------------|
G|----------------------------------------------|
D|----------------------------------------------|
A|-------------0-----------0--------------------|
E|-0h3p2h3p2p0--h3p2h3p2p0--h3p2h3p2p0-0h1h3p0~~|


Then play Part I

Then play Chorus

Then play Bridge

and that's it!


| /  slide up
| \  slide down
| h  hammer-on
| p  pull-off
| ~  vibrato
| +  harmonic
| x  Mute note
===============================================================================
            

comments powered by Disqus
↑ Back to top | Macabre Tabs for Diary Of Torture. Lyrics for acoustic guitar and electric guitar. Tablatures and chords are parodies/interpretations of the original songs. You may use it for private study, scholarship, research or language learning purposes only