» » »

Macabre, Acid Bath Vampire Tabs (ver.1)

Artists:  A B C D E F G H I J K L M N O P Q R S T U V W X Y Z # 

Acid Bath Vampire Tabs (ver.1)

Macabre Tabs
 Rating:
4/5 (4 votes)
Acid Bath Vampire lessons Tabs too difficult? Try these video lessons and learn fast
                -------------------------------------------------------------------------------
                           WEREWOLF OF BEDBURG - Macabre
-------------------------------------------------------------------------------

Tuning: Standard E-B-G-D-A-E

   Section A
     Part I - Play Twice
e|------------------------|
B|-9--8--7--6-------------|
G|-8--7--6--5--7--6--5----|
D|-6--5--4--3--7--6--5----|
A|-------------5--4--3----|
E|------------------------|

     Part II (Palm Mute entire part) - Play 8 Times
e|-------------------|
B|-------------------|
G|-5-5-5-5--5--5--5--|
D|-5-5-5-5--5--5--5--|
A|-3-3-3-3--3--3--3--|
E|-------------------|

Play Section A 3 times, then:

   Section B
e|------------------------|
B|-9--8--7--6-------------|
G|-8--7--6--5--7--6--5----|
D|-6--5--4--3--7--6--5----|
A|-------------5--4--3----|
E|------------------------|

e|------------------------|
B|-9--8--7--6-------------|
G|-8--7--6--5--7--6--5----|
D|-6--5--4--3--7--6--5----|
A|-------------5--4--3----|
E|------------------------|

     Chorus - Play Twice
e|-------------------------------------------------------------|
B|-------------------------------------------------------------|
G|-------------------------------------------------------------|
D|----------2------------2-------------------------------------|
A|-2-3-5--2---5-2--5-5-2---5-2--3-3-0-0-3333-0-0-5-3-2-0-2-----|
E|---------------------------------------------------------3---|

Then back to Section A - Play it twice
Then play Section B
Then play Chorus

     Outro (Palm Muted) - Play 16 times
e|-------------------|
B|-------------------|
G|-5-5-5-5--5--5--5--|
D|-5-5-5-5--5--5--5--|
A|-3-3-3-3--3--3--3--|
E|-------------------|


| /  slide up
| \  slide down
| h  hammer-on
| p  pull-off
| ~  vibrato
| +  harmonic
| x  Mute note
================
            
Submit corrections

comments powered by Disqus
↑ Back to top | Macabre Tabs for Acid Bath Vampire. Lyrics for acoustic guitar and electric guitar. Tablatures and chords are parodies/interpretations of the original songs. You may use it for private study, scholarship, research or language learning purposes only