» » »

M83, Reunion Tabs (ver.1)

Artists:  A B C D E F G H I J K L M N O P Q R S T U V W X Y Z # 

Reunion Tabs (ver.1)

M83 Tabs
 Rating:
4/5 (4 votes)
Reunion lessons Tabs too difficult? Try these video lessons and learn fast
                Note: The entire song can be played using power chords but I like to play it this way! Enjoy!

Tuning: Standard

Intro

e |--0------0---------|
B |--0------7---------|
G |--12-----7---------|
D |--12-----5---------|
A |--10-----5---------|
E |--x------x---------|

e |--x------0---------|
B |--x------5---------|
G |--12-----5---------|
D |--12-----3---------|
A |--10-----3---------|
E |--x------x---------|

Verse 1

e |--x------0---------|
B |--x------7---------|
G |--12-----7---------|
D |--12-----5---------|
A |--10-----5---------|
E |--x------x---------|

e |--0------0---------|
B |--0------5---------|
G |--12-----5---------|
D |--12-----3---------|
A |--10-----3---------|
E |--x------x---------|

You came out of nowhere.
Stealing my heart and brain.
Flaming my every cell.
You make me feel myself

Chorus

e |--0------0---------|
B |--7------5---------|
G |--7------5---------|
D |--5------3---------|
A |--5------3---------|
E |--x------x---------|

Oh oh oh oh oh oh


e |--0------x-----0----|
B |--7------x-----5----|
G |--7------12----5----|
D |--5------12----3----|
A |--5------10----3----|
E |--x------x-----x----|

Will you stay in this land forever?

Verse 2

e |--x------0---------|
B |--x------7---------|
G |--12-----7---------|
D |--12-----5---------|
A |--10-----5---------|
E |--x------x---------|

e |--x------0---------|
B |--x------5---------|
G |--12-----5---------|
D |--12-----3---------|
A |--10-----3---------|
E |--x------x---------|

Across the time and space.
A never-ending dance.
A blooming and a trance.
You make me feel my soul.
There's no more loneliness.
Only sparkles and sweat.
There's no more single fate.
You make me feel myself

Chorus

Bridge

e |--x------0---------|
B |--x------7---------|
G |--12-----7---------|
D |--12-----5---------|
A |--10-----5---------|
E |--x------x---------|

e |--x------0---------|
B |--x------5---------|
G |--12-----5---------|
D |--12-----3---------|
A |--10-----3---------|

My body is like a lightning rod
Capsize me and douse me in your bay
A shiver of want, always
When you are on the tip of my tongue
In the back of your parked car
I could build a fort
And play all day
Between your lips
Let's stay here forever

Chorus

Outro

e |--0------0---------|
B |--7------5---------|
G |--7------5---------|
D |--5------3---------|
A |--5------3---------|
E |--x------x---------|

Oh oh oh oh oh oh

e |--0------x-----0----|
B |--7------x-----5----|
G |--7------12----5----|
D |--5------12----3----|
A |--5------10----3----|
E |--x------x-----x----|

Will you stay in this land forever?
            
Submit corrections

comments powered by Disqus
↑ Back to top | M83 Tabs for Reunion. Lyrics for acoustic guitar and electric guitar. Tablatures and chords are parodies/interpretations of the original songs. You may use it for private study, scholarship, research or language learning purposes only