>
 >
 >
Wanna Be Where You Are 1

Wanna Be Where You Are 1 Guitar Tabs

M2m - Wanna Be Where You Are 1 chords, tabs, tablatures, lyrics

Guitar lessons | Add/correct | Request | Top 50 tabs Artists:  A B C D E F G H I J K L M N O P Q R S T U V W X Y Z 0-9

Wanna Be Where You Are 1 Guitar Tabs – M2m

CD, Sheet music, Poster

Do you like Wanna Be Where You Are 1? Share with your friends now
ChordsTabsTabs v2Tabs v3Ukulele

*Time: 3
       4

********** = my corrections from my other tab
             so this is more accurate
(Piano arranged for guitar)

Intro:

 C         G          Am
e-0----0-------|------3-0-----------|-----|
b----------3---|-3-----------1------|--3--|
g----0---0---0-|---0-------2---2----|-----|
d--------------|--------------------|-----|
a-3------------|--------------------|--3--|
E--------------|--------------------|-----|

Verses:

  C       G           Am
e-0----0-------|------3-0-----------|
b----------3---|-3-----------1------|
g----0---0---0-|---0-------2---2----|
d--------------|--------------------|
a-3------------|--------------------|
E--------------|--------------------|

  C           Am  
e-0---------------|---------------|-0------------|
b----3--1--0--1---|-1---0----0----|---1---1---0--|
g---------------2-|---2----2---2--|-----2---2----|
d-----------------|---------------|--------------|
a-3-----------0---|---------------|--------------|
E-----------------|***************|**************|

e-------------|
b-(0)---------|
g-------------|
d-------------|
a-------------|
E-------------|


  C        G          Am              Dm       C
e-0----0-------|------3-0-----------|-----1----0----|
b----------3---|-3-----------1------|-------3-------|
g----0---0---0-|---0-------2---2----|---2---------0-|
d--------------|--------------------|-0-------------|
a-3------------|--------------------|----------3----|
E--------------|--------------------|---------------|
                                     make me ..evrthng
               Dm         Am
e-------------|-----1----------|-0-------0---|
b-------------|-------3--------|-----1-----1-|
g-----------2-|---2------------|-------2-----|
d---------0---|-0------------2-|---2---------|
a--3-2-0------|-----------0----|-------------|
E-------------|----------------|-------------|
             ...u keep me smilin'

              Dm                    C
e-3--3--1--0--1----|-----1-1-1-0---|-0-------0-0-0-|
b------------------|-3-----------3-|-----1---------|
g----------------2-|---2-----------|---0---0-------|
d-------------0----|---------------|---------------|
a-3----------------|---------------|-3-------------|
E------------------|---------------|---------------|


        G                  C
e------------0---|--------------|-------------|
b-3--1--1--------|-3--3--1--1---|-1---1---1---|
g----------2---2-|------------0-|---0---0---0-|
d----------------|--------------|-------------|
a-------0--------|----------3---|-------------|
E----------------|--------------|-------------|

Chorus:
 **********( Am, F, C, Am, G, C )*********

Bridge:
  
Instrumental: (last)==>leading to verse
  G, Dm, C, G, C

Ending:
 G         D/F#        Em          Dm      C
e----------------|---------------|---------------|
b-0----0---------|---3--0----0---|-----3---------|
g----0---0-------|-2-------0---0-|---2---2-------|
d--------------0-|---------------|-0-----------2-|
a----------------|---------------|----------3----|
E-3---------2----|------0--------|---------------|
  starts...       ...again               ...you
 
     Dm        C
e--------------|---------------|-----------------|
b----1-----3---|-------1h3-1---|--1---1---1------|
g--0-----2---2-|-----0-------0-|----0---0---0----|
d------0-------|---2-----------|-----------------|
a--------------|-3-------------|-----------------|
E--------------|---------------|-----------------|
 ..uu           ..uu                I wanna be 
  G
e------------3------|
b----------0--------|
g--------0----------|
d------0------------|
a----2--------------|
E--3----------------|
  where u are..


*if u've got an original piano score
 written in standard notation, please share and
 send a copy to me.





Comments


Popular M2m tabs & chords
Dear Diary Chords
Don T Say You Love Me Chords
Dont Say You Love Me Chords
What You Do About Me Chords
Everything Tabs
The Day You Went Away Tabs
They Day You Went Away Tabs
Wanna Be Where You Are Tabs
Why 1 Tabs
Why Ukulele


Song lyrics



↑ Back to top | Tablatures and chords are parodies/interpretations of the original songs. You may use it for private study, scholarship, research or language learning purposes only
© 2014 AZChords.com Contact us | Privacy policy | DMCA | Add/correct tabs | Request tabs | Top 50 tabs