» » »

Jennifer Tabs (ver.2)

Artists:  A B C D E F G H I J K L M N O P Q R S T U V W X Y Z # 

Jennifer Tabs (ver.2)

M2m
Rating:
0/5 (0 votes)

Hard to play? Try these video lessons and learn fast.
                
Chords:			 
(First Guitar)              (Second Guitar)   
D	X X 0 2 3 2	X 5 7 7 7 5  (Bridge and Chorus part)
Asus6/4	X 0 2 2 3 2	
Em7add9	0 2 2 X 3 2	8 X X 7 8 8  (Chorus part)
G	3 2 0 0 0 3	X 5 5 7 8 7  (Bridge and Chorus part)
G/F#	2 2 0 0 3 3     
Em7	0 2 2 0 3 3	X 7 9 7 8 7  (Bridge part)
A	X 0 2 2 2 0	X 7 7 9 10 9 (Chorus part)   
Cadd9 	X 3 2 0 3 3 
      

Tabs (Second Guitar): 
Intro

e--2-0-----2----2-0-----2-----2-0-----2---
b------3------------3-------------3-------
g--------2------------2-------------2-----
d-----------------------------------------
a-----------------------------------------
E-----------------------------------------

e--0-----2-0-----2------------------------
b----3-------3----------------------------
g------2-------2--------------------------
d-----------------------------------------
a-----------------------------------------
E-----------------------------------------

Verse 2: She´s adorable...

e---2-0-----2---2-2-2-0-----2-----2-2-2-0-
b-------3----------------3----------------
g----------2----------------2-------------
d-----------------------------------------
a-----------------------------------------
E-----------------------------------------

e-------2-0-----2---2-0-------------------
b---3-------3-----------3-----3/7---------
g-----2-------2-----------2---------------
d-----------------------------------------
a-----------------------------------------
E-----------------------------------------
 
Solo: (Second Guitar)

e-----------------------------------------
b--7-5-7-5-7~---7-5-7-5-7~---7-5-7-5-7-5/7
g-----------------------------------------
d-----------------------------------------
a-----------------------------------------
E-----------------------------------------


e------------------------------------8----
b--5/7p3-3---10-8-10-8-10~--10-8-10-------
g--------------------------------------8~-
d-----------------------------------------
a-----------------------------------------
E-----------------------------------------

e-----------------------------------------
b--10-8-10-8-10--8/10---12/4-4--4/13------
g-----------------------------------------
d-----------------------------------------
a-----------------------------------------
E-----------------------------------------

Solo (Third Guitar): In the second part of the solo...
e---------------------5---------------5----
b--7-5-7-5-7~---7-5-7-------7-5-7-5-7-----
g-----------------------7~---------------7
d-----------------------------------------
a-----------------------------------------
E-----------------------------------------

Electric Guitar Solo: (CD Versión)
e---------------------5-----------------------------
B-7p5-7-5-5h7~--7h5-7-------7p5-7-7-7-7-8-7-5---5h7-
G-----------------------7~--------------------7-----
D---------------------------------------------------
A---------------------------------------------------
E---------------------------------------------------

            hold bend 
e-----------5-------5-5---5-5h7--7///--5///-5h7-
B-5-----5h7---7---------------------------------
G---7-------------------------------------------
D-----------------------------------------------
A-----------------------------------------------
E-----------------------------------------------

e-7///--5///--7///--5///-5h7-
B----------------------------
G----------------------------
D----------------------------
A----------------------------
E----------------------------

Bridge: play this riff
e--7/8----7-5-7--------------
b----------------------------
g----------------------------
d----------------------------
a----------------------------
E----------------------------
  just a friend...

e---7/8------7-5-7-----------
b---------8------------------
g----------------------------
d----------------------------
a----------------------------
E----------------------------
   name again!!!

Intro (First Guitar):
D, Asus6/4, Em7add9, G

Verse 1:
D
She's so beautiful 
Asus6/4
She is suuuuuuper nice
Em7add9             G 
Everybody say she's special 
D
She is wonderful 
Asus6/4        Em7add9   
Unbelievable  sweet 
              G       G/F#
I guess she is perfect 

Bridge: (Second Guitar: Em7, A, Em7, D)
Em7               A
Stop saying she's just a friend 
Em7add9           A
Keep hearing her name again, name again! 

Chorus: (Second Guitar: G, Cadd9, Em7, D, G, Cadd9, Em7, D) 
G
I really have to say 
Cadd9
She's always in my way 
Em7                          D
I can't believe how much you love her 
G
How can I make you see? 
Cadd9
It's either her or me 
Em7                  D (Stop!!!)
I will never be like Jennifer 

Intro (First Guitar):
D, Asus6/4, Em7add9, G

Verse 2:
D
She's a fragile girl 
Asus6/4
Skin like porcelain 
Em7add9                    G
Shame on you, if you would hurt her 
D
She's adorable 
Asus6/4
Oh so vulnerable 
Em7add9                    G      G/F#
I wish that somebody would drop her 

Bridge: (Second Guitar: Em7, A, Em7, D)
Em7               A
Stop saying she's just a friend 
Em7add9           A
Keep hearing her name again, name again!

Chorus: (Second Guitar: (G, Cadd9, Em7, D)(X3)) 
G
I really have to say 
Cadd9
She's always in my way 
Em7                          D
I can't believe how much you love her 
G
How can I make you see? 
Cadd9
It's either her or me 
Em7                  D       G       Cadd9
I will never be like Jeniffer
 Em7              D (Stop!!!) 
Jennifeeeer!!!!!

Jennifer.

Solo part: (First Guitar)
D, Asus6/4, Em7add9, G, D, Asus6/4, Em7add9, G 
 

Bridge: (Second Guitar: Em7, A, Em7, D)
Em7               A
Stop saying she's just a friend 
Em7add9           A
Keep hearing her name again, name again!

[Chorus 2x] 

Terminas De Cantar Jenifeeeer! Con G (Sol Mayor)

Esta Cancion se la dedico a una chica que vende Jugos que me cae muy bien,
creo que se llama mary
            
Hard to play? Try these video lessons and learn fast. | Correct




comments powered by Disqus
↑ Back to top | Tablatures and chords are parodies/interpretations of the original songs. You may use it for private study, scholarship, research or language learning purposes only