>
 >
 >
Eventually

Eventually Guitar Tabs

M2m - Eventually chords, tabs, tablatures, lyrics

Guitar lessons | Add/correct | Request | Top 50 tabs Artists:  A B C D E F G H I J K L M N O P Q R S T U V W X Y Z 0-9

Eventually Guitar Tabs – M2m

CD, Sheet music, Poster

Do you like Eventually? Share with your friends now
ChordsTabsTabs v2Ukulele

note: capo on 4th fret


  INTRO  &  VERSES :

 (Am)         (G)             (D)
  C#           B               F# 
e-------------|-------------|-------7pull-off6---|
b-------5-----|-------4-----|------------------7-|
g-------6-----|-------4-----|----6---------------|
d----6--------|-------------|--4-----------------|
a--4-------4--|---6------6--|--------------------|
E-------------|-7-----------|--------------------|

 
 (Am)          (C)           (G)          (Am)         
  C#            E             B            C#           
e--------------|------------|--------7---|------------|
b-------5------|------4-----|------------|-------5----|
g-------6------|------4-----|----------4-|-------6----|
d----6---------|---6--------|------------|----6-------|
a--4-------6---|-7--------7-|----6-------|--4-------6-|
E--------------|------------|--7---------|------------|


 (D)
  F#
e--------7pull-off6---|
b------7------------7-|
g----6----------------|
d--4------------------|
a---------------------|
E---------------------|



  CHORUS :


 (Am)         (C)          (Am)        
  C#           E            C#         
e-------------|------------|-----------|
b-------5-----|-------5----|------5----|
g-------6-----|-------4----|------6----|
d----6--------|----6-------|---6-------|
a--4-------6--|--7-------6-|-4-------4-|
E-------------|------------|-----------|
   Aahhh.......             Aahhh.......
 

 (Am)        (G)
  C#          B
e-------7----|--repeat--|
b------------|----------|
g----------4-|-the------|
d------------|----four--|
a---6--------|----------|
E-7----------|--bars----|

 


 (Am)        (C)          (G)         
  C#          E            B           
e------------|-----------|------7----|
b-------5----|------5----|-----------|
g-------6----|------4----|---------4-|
d----6-------|---6-------|-----------|
a--4-------6-|-7------7--|---6-------|
E------------|-----------|-7---------|
  Aahhhh........................


  (D)
   F#
e--------7pull-off6-----|
b------7-------------7--|
g----6------------------|
d--4--------------------|
a-----------------------|
E-----------------------|
 

 (Am)         (G)
  C#           B
e------------|------------|
b-------5----|------4-----|
g-------6----|------4--4--|
d----6-------|---------4--|
a--4-------4-|---6-----6--|
E------------|-7----------|
        Ev..e..n..tually

  Outro :

 (A) 
  C#
e--------------------------------|
b--4---8---6---9---4---8---6---8-|
g--------------------------------|
d--------------------------------|
a--4-------4-------4-------4-----|
E--------------------------------|


=====>I did not find any of this tab in the internet so
      I decided to tab it myself.    
      I believe this is 90% correct.
      This is just for the first guitar which is done by  
      Marit Larsen. I do not want to have my M2M tape
     (with their signature on it) scrathed,
      so sorry if you'll see some mistakes.
      
=====> I WISH MARIT LARSEN WOULD COME ACROSS THIS 
       AND E-MAIL ME THE MOST ACCURATE ONE. 





Comments


Popular M2m tabs & chords
Dont Say You Love Me Chords
Is You Chords
Wait For Me Chords
Eventually 1 Tabs
Jennifer Tabs
What You Do About Me Tabs
What You Do About Me Intro Tabs
Why 1 Tabs
Eventually Ukulele
Give A Little Love Ukulele


Song lyrics



↑ Back to top | Tablatures and chords are parodies/interpretations of the original songs. You may use it for private study, scholarship, research or language learning purposes only
© 2014 AZChords.com Contact us | Privacy policy | DMCA | Add/correct tabs | Request tabs | Top 50 tabs