» » »

Lynyrd Skynyrd, Tuesday's Gone Tabs (ver.6)

Artists:  A B C D E F G H I J K L M N O P Q R S T U V W X Y Z # 

Tuesday's Gone Tabs (ver.6)

Lynyrd Skynyrd Tabs
 Rating:
4/5 (4 votes)
Tuesday's Gone lessons Tabs too difficult? Try these video lessons and learn fast
1
                (Solo)
Tuesday?s Gone (Solos)
Lynyrd Skynyrd

Here are the lead guitar parts for Tuesday?s Gone by Lynyrd Skynyrd.  I have

h = hammer on
p = pull off
b = bend to pitch of following note
r = return bend
pb = prebend/ghost bend
b(x)>>>>> = sustain bend
/ = slide up
\ = slide down
/>>>>> = gradual slide/steady gliss

Solo 1 (Before first verse)

|---------------------|-----------------------------------------------------------|
|---------------------|-----------------------------------------------------------|
|-4b(6)>>>r(4)b(6)r(4)|-2-----4b(6)>>>r(4)b(6)r(4)-------4b(6)r(4)b(6)r(4)b(6)r(4)|
|---------------------|----------------------------2------------------------------|
|---------------------|-----------------------------------------------------------|
|---------------------|-----------------------------------------------------------|

|-------------------------------------|-----------------------------------------------|
|-------------------------------------|-5---------5------------------5-------(5)/7---5|
|-----------2----------------------2/4|-4b(6)-----4b(6)>>>r(4)---2---4-------(4)/6---4|
|-4-----4----------------------2h4----|-----------------------------------------------|
|---------------5p4-5-----\2h4--------|-----------------------------------------------|
|-------------------------------------|-----------------------------------------------|

|-----------------------|-----------------------|
|-3--------------2-3-5-2|-----------------------|
|-2---------------------|-2---------------------|
|-----------------------|-----------------------|
|-----------------------|-----------------------|
|-----------------------|-----------------------|

Solo 2 (After first chorus, before first verse)

|--------------------------|-------------------------------------------------|
|--------------------------|-------------------------------------------------|
|-4b(6)r(4)b(6)r(4)b(6)r(4)|-2-----4b(6)>>>r4-2-4b(6)---4-------4b(6)r(4)b(6)|
|--------------------------|------------------------------2------------------|
|--------------------------|-------------------------------------------------|
|--------------------------|-------------------------------------------------|

|---------------------------------------|------------------------------------------------|
|---------------------------------------|-5-----------5--------------5/7\5-----5/7---5---|
|-----------2------------------------2h4|-4b(6)-------4b(6)>>>r(4)---4/6\4-----4/6---4---|
|-4-----4------------------------2h4----|------------------------------------------------|
|---------------5p4h5p4h5---\2h4--------|------------------------------------------------|
|---------------------------------------|------------------------------------------------|

|--------------------------|----------------------|
|-3/>>5-3-----------2-3-5-2|----------------------|
|-2/>>4-2------------------|-2--------------------|
|--------------------------|----------------------|
|--------------------------|----------------------|
|--------------------------|----------------------|

Solo 3 (After piano solo, before 3rd verse)

|-----------------|------------------------------------------------------------|
|-----------------|------------------------------------------------------------|
|-4b(6)r(4)b(6)---|-2-----4b(6)>>>r(4)b(6)r(4)-------4b(6)-4-4pb(6)r(4)b(6)r(4)|
|-----------------|----------------------------2-------------------------------|
|-----------------|------------------------------------------------------------|
|-----------------|------------------------------------------------------------|

|------------------------------------|----------------------------------------------|
|------------------------------------|----------------------------------------------|
|-------2---------------------4b(6)-4|-2---4---4pb(6)>>>r(4)p2-/6---4/>>>>>11---9---|
|-4---------4p2p0---------4p2--------|----------------------------------------------|
|---------------------2h4------------|----------------------------------------------|
|------------------------------------|----------------------------------------------|

|--------12b(14)-----12pb(14)r(12)---------|
|-10---------------------------------------|
|------------------------------------------|
|------------------------------------------|
|------------------------------------------|
|------------------------------------------|

Outro Solo

|------------------------------|----------------------------------------------------------------|
|------------------------------|----------------------------------------------------------------|
|-16b(18)>>>r(16)p14-16b(18)---|-14-----16b(18)>>>r(16)p14-16b(18)---16--------------14h16-14---|
|------------------------------|----------------------------------------14-----14h16----------16|
|------------------------------|----------------------------------------------------------------|
|------------------------------|----------------------------------------------------------------|

|----------------------------------------------|-------------------------------------------------|
|----------------------------------------------|-------------------------------------------------|
|14---13-----------14/13-13/11-11/9-9/7-6h7p6--|----------2-4-4pb(6)-4pb(6)r(4)-----------2h4p2--|
|--------16---14------------------------------9|-7-----\4-----------------------2-----2h4-------4|
|----------------------------------------------|-------------------------------------------------|
|----------------------------------------------|-------------------------------------------------|

|-----------------------------------------------------|
|-----------------------------------------------------|
|-2---2-------2---2----------------------9/11-14-14/16|
|---------4-----------4-----------7h9/11--------------|
|-----------------------------7h9---------------------|
|-------------------------7h9-------------------------|

|------------------------------------------------------------------------|
|---------------------------17----------------------------------------17/|
|-14---16---16b(18)>>>r(16)------16b(18)---16---16b(18)r(16)p14----14----|
|---------------------------------------------------------------16-------|
|------------------------------------------------------------------------|
|------------------------------------------------------------------------|

|--------------------------------------17---------------------------|
|/19---19---19---18/19-19---19---19p17------19p17----17-------------|
|-------------------------------------------------18----\16-14----14|
|--------------------------------------------------------------16---|
|-------------------------------------------------------------------|
|-------------------------------------------------------------------|

|-----------------------------------------------------------------------------|
|---------------------------17--------------------------------------17|
|-14---16---16b(18)>>>r(16)----16b(18)---16---16b(18)r(16)p14----14---|
|-------------------------------------------------------------16------|
|-----------------------------------------------------------------------------|
|-----------------------------------------------------------------------------|

|-------------17---------------------17----17-------------17---17------------------------|
|-(17)b(19)>>>>>>>>(17)---17b(19)>>>(17)--------17b(19)-------------17pb(19)r(17)------17|
|---------------------------------------------------------------------------------16-----|
|----------------------------------------------------------------------------------------|
|----------------------------------------------------------------------------------------|
|----------------------------------------------------------------------------------------|

|------------------------------------------------------------------------|
|---------------------------17---17--------17-------------------------17/|
|-14---16---16b(18)>>>r(16)------16b(18)---16---16b(18)r(16)p14----14----|
|---------------------------------------------------------------16-------|
|------------------------------------------------------------------------|
|------------------------------------------------------------------------|

  Begin Fade
|-------------------------------------------17---------17---------17|
|/19-19-19-19-19-19-19-19-19-19-19-19-19p17------19p17------19p17---|
|-------------------------------------------------------------------|
|-------------------------------------------------------------------|
|-------------------------------------------------------------------|
|-------------------------------------------------------------------|

|-19b(21)---19b(21)-----19pb(21)r(19)p17----17-19-19-----------17-19-19b(21)---|
|----------------------------------------19--------------17-19-----------------|
|------------------------------------------------------------------------------|
|------------------------------------------------------------------------------|
|------------------------------------------------------------------------------|
|------------------------------------------------------------------------------|

                          Fade Out
|-17--------------------------|
|----19-17--------------------|
|----------\16-14-14---16b(18)|
|-----------------------------|
|-----------------------------|
|-----------------------------|
            
Submit corrections

comments powered by Disqus
↑ Back to top | Lynyrd Skynyrd Tabs for Tuesday's Gone. Lyrics for acoustic guitar and electric guitar. 1 Tablatures and chords are parodies/interpretations of the original songs. You may use it for private study, scholarship, research or language learning purposes only