» » »

Lynyrd Skynyrd, Tuesday's Gone Tabs (ver.4)

Artists:  A B C D E F G H I J K L M N O P Q R S T U V W X Y Z # 

Tuesday's Gone Tabs (ver.4)

Lynyrd Skynyrd Tabs
Rating:
0/5 (0 votes)
Hard to play? Try these video lessons and learn fast.
                (Intro)
E--9--9-10-9-7--9-7-7-5--7-9------5-7-9--10-9-9-7--9-7--12-10-12-10-
B----------------------------7--7-----------------------------------
G-------------------------------------------------------------------
D-------------------------------------------------------------------
A-------------------------------------------------------------------
E-------------------------------------------------------------------

E--12-10------------------------------------------------------------
B-------------------------------------------------------------------
G--------6-4-6-4-2---6-4-6-4---6-4-6-4-6-4--------------------------
D----------------------------2-------------4--6-7-------------------
A-------------------------------------------------5h4-5-------------
E-------------------------------------------------------------------


This is the real way to play the intro.
            

comments powered by Disqus
↑ Back to top | Lynyrd Skynyrd Tabs for Tuesday's Gone. Lyrics for acoustic guitar and electric guitar. Tablatures and chords are parodies/interpretations of the original songs. You may use it for private study, scholarship, research or language learning purposes only